Guitaretab - guitar tabs
Song name
# A B C D E F G H I J K L M N O P Q R S T U V W X Y Z

All-american Rejects - Eyelash Wishes tab

intro (on faded guitar)

e)-----------------------------------------------|
B)-----------------------------------------------|
G)-5---------------------------------------------|
D)-5-x12--7------2------5------------------------|
A)-3------7-x12--2-x12--5-x12--------------------|
E)--------5------0------3------------------------|

Then lead does


e)-----------------------------------------------|
B)---2--4----------------------------------------|
G)---------2--4----------------------------------|
D)---------------3-------------------------------|
A)-----------------------------------------------|
E)-----------------------------------------------|

Then amped guitar kicks in...

background guitar plays
e)------------------------------------------------|
B)------------------------------------------------|
G)--5---------------------------------------------|
D)--5-x16--7------2-------------------------------|
A)--3------7-x16--2-x16--5-x16--------------------|
E)---------5------0------3------------------------|

and lead plays ( figure out timing )


e)-------------------------------------------------------------|
B)----3------------------------3--5--3-------5--3--5--3--------|
G)-5-----5--------4--5--4--------------------------------3-----|
D)-------------------------------------------------------------|
A)-------------------------------------------------------------|
E)-------------------------------------------------------------|

Then before Spin Round...


e)----------|
B)----------|
G)--5--5-\--|
D)--5--5----|play chords open then play chords from intro palm muted
A)--3--3-/--|
E)----------|

Then after a short sequence of words play intro again but lead guitar plays this

[ Tab from: http://www.guitaretab.com/a/all-american-rejects/90572.html ]
e)--------------------------------------------------------------------------------------|
B)--6-6-5-6-5-6---3-----6-6-5-6-5-6--------6-6-5-6-5-6--3-5-3---------------------------|
G)--------------5---5---------------4-5-4-----------------------------------------------|
D)--------------------------------------------------------------------------------------|
A)--------------------------------------------------------------------------------------|
E)--------------------------------------------------------------------------------------|


e)----------------------------------------------|
B)-6-6-5-6-5---5--3--5-3------------------------|
G)-----------------------5----------------------|
D)----------------------------------------------|
A)----------------------------------------------|
E)----------------------------------------------|

then muffle chords on intro thruoghout verses and play them open in pre- chorus. Also 
the chorus.

then the only different part of the song is the bridge.

Just be brave...


e)---------------------------------------------------|
B)-palm mute-------------\---------------------------|
G)----/-\---5-\-----------\--------------------------|
D)-2--2-2---5--let ring---}-x2-----------------------|
A)-2--2-2---3-/-----------/--------------------------|
E)-0--0-0----------------/---------------------------|

the keep replaying the parts of the song listed above (there song is basically all
chords) except the short lead part right before the last "and shadows bend one last time"


e)--------12-------------------------------------|
B)----12-----------------------------------------|
G)-----------------------------------------------|
D)-----------------------------------------------|
A)-----------------------------------------------|
E)-----------------------------------------------|

just play that over and over and thats the song. Great work by the artists. And this is
first tab ,so comment, and if the chords are wrong don't blame me. I'm doing this on a
and the sound isn't too great...
Related for Eyelash Wishes tab
Advertisement will be closed in 10 seconds