Song name
# A B C D E F G H I J K L M N O P Q R S T U V W X Y Z

All Caps - Dont Unplug Me tab

-------------------------------------------------------------------------------
			     Don't Unplug Me - ALL CAPS
-------------------------------------------------------------------------------
Tabbed by: Yangbin Wu
Email: yangbinw@uci.edu
Comments: Pretty sure it's correct. A very catchy song from a very lovable band. 
Enjoy! (More tabs from ALL CAPS to come in the following days)

Tuning:EADGBe

Chorus Melody
e|-4-4-4-2-------------4-7-4-2-4-4-8/9-7---4-4-4-2-----------4-4-8/9-7-4-0-2-||
B|---------4-4-4-4-5-2-----------------------------4-4-4-5-2-----------------||
G|---------------------------------------------------------------------------||
D|---------------------------------------------------------------------------||
A|---------------------------------------------------------------------------||
E|---------------------------------------------------------------------------||

Female Melody (Verse 1 & 3)
e|-4-4-2-0--0-2-4-2-0-0-2-0---0-2-0-0-0-4/5-9-7-4-0--------------------------|
B|---------------------------------------------------------------------------|
G|---------------------------------------------------------------------------|
D|---------------------------------------------------------------------------|
A|---------------------------------------------------------------------------|
E|---------------------------------------------------------------------------|

e|-4--2-0-0--0--4-2-0-2-0---0-0-2-0-0-0-5--9--7-2/4-0------------------------|
B|---------------------------------------------------------------------------|
G|---------------------------------------------------------------------------|
D|---------------------------------------------------------------------------|
A|---------------------------------------------------------------------------|
E|---------------------------------------------------------------------------|

Male Melody (Verse 2 & 4)
e|-0-0-0-0-2-2------------------------------0-0-0-0-2-2---------------------------|
B|-------------4-2-2---2-2-2-2--2-2--4--5---------------4-2-2---2-2-2-2--2-2--4--5|
G|--------------------------------------------------------------------------------|
D|--------------------------------------------------------------------------------|
A|--------------------------------------------------------------------------------|
E|--------------------------------------------------------------------------------|

E: 779997
B: 224442
A: 557765 (or 002220)

Chorus:
E
Don't unplug me
B       A
or just shut me down
E
Please just love me
B         A
with your steel heart
E
I'd reboot you
B        A
If you'd look at me
E
With those cold eyes
B        A
One more time


Verse 1:
E               B            A
I remember, our software was compatible
E                 B             A
I think I felt my circuit board ignite
E                        B        A
You held my hand in your metallic grip
E                      B          A
We may be machines but I'm in love tonight

Verse 2:
E                         B       A
Baby there is something I have to say
E                     B     A
I think it's time for my upgrade
E                       B       A
I would look so good in version two
E                       B       A
But I promise that it's me, not you

[Chorus]

Verse 3 (same chord structure): 
Can you hear me, you haven't moved an inch
Is this a system failure, what should I do?
Your new interface it seems to have some bugs
You're not responding, I think they broke you

Verse 4 (same chord structure): 
Hello and welcome to version two
Tell me what can I do for you?
What is a hug that does not compute
Please stand by for my system reboot

[Chorus]

Verse 5 (same chord structure as chorus)
Just got the memo
about this upgrade to version two
it removes extraneous programs
that means emotions like loving you
I don't wanna lose myself
or ever have to say goodbye
I want to hold on to my consciousness
I don't want to die
Tap to rate this tab
 
# A B C D E F G H I J K L M N O P Q R S T U V W X Y Z