Guitaretab - guitar tabs
Song name
# A B C D E F G H I J K L M N O P Q R S T U V W X Y Z

All Envy Aside - Burning Again tab

-------------------------------------------------------------------------------
			     BURNING AGAIN - All Envy Aside
-------------------------------------------------------------------------------

Hey all, this is a great song, and pretty easy to play.  There are two guitar, but
you can easily play it with one if need be.  The only places in which Iíll distinguish
between the two is the second part of the chorus and the bridge.  Good luck!

Edit:  Thanks to Jaek from the band for helping out with the intro


Intro and Verse

	Bm		   Bsus2		  Bm		    Bsus2
e|-----2-----2-----2----2------2-----2----2-----2-----2----2------2-----2----|
B|-------3-----3----------2------2----------3-----3----------2------2--------|
G|---------4-----4----------4------4----------4-----4----------4------4------|
D|---------------------------------------------------------------------------|
A|---------------------------------------------------------------------------|
E|---------------------------------------------------------------------------|

	Em		    A    Asus4   A
e|------0-----0-----0--------------------------------------------------------|
B|--------0-----0--------2-----3-----2---------------------------------------|
G|----------0-----0--------2-----2-----2-------------------------------------|
D|---------------------------2-----2-----------------------------------------|
A|---------------------------------------------------------------------------|
E|---------------------------------------------------------------------------|

Chorus 

G1 and G2
e|---------------------------------------------------------------------------|
B|---------------------------------------------------------------------------|
G|-----4---4---4--4--4--x--6--7---7--7---x-x----10-10-10-10--9---------------|
D|-----4---4---4--4--4--x--6--7---7--7---x-x----x--x--x--x---x---------------|
A|-----2---2---2--2--2--x--4--5---5--5---x-x----8--8--8--8---7---------------|
E|---------------------------------------------------------------------------|
[ Tab from: http://www.guitaretab.com/a/all-envy-aside/70419.html ]
G1
e|---------------------------------------------------------------------------|
B|---------------------------------------------------------------------------|
G|-----9---9---9--9--9--x--10-11--11-11--x-x----15-15-15-15--14--------------|
D|-----9---9---9--9--9--x--10-11--11-11--x-x----x--x--x--x---x---------------|
A|-----7---7---7--7--7--x--8--9---9--9---x-x----13-13-13-13--12--------------|
E|---------------------------------------------------------------------------|

G2 - same chords, just an octave lower
e|---------------------------------------------------------------------------|
B|---------------------------------------------------------------------------|
G|---------------------------------------------------------------------------|
D|-----2---2---2--2--2-----4--5---5--5---------------------------------------|
A|-----2---2---2--2--2-----4--5---5--5---------------------------------------|
E|-----0---0---0--0--0-----2--3---3--3---------------------------------------|


Bridge - Palm muted at first.  G2 plays chords (arpeggiate a little)

	Bm		 			 Bm		   		
e|---------------------------------------------------------------------------|
B|---------------------------------------------------------------------------|
G|---------------------------------------------------------------------------|
D|---------------------------------------------------------------------------|
A|----2-4-2-2-5-2-2-5-2-2-5-2-2-4-2-2----2-4-2-2-5-2-2-5-2-2-5-2-2-4-2-2-----|
E|---------------------------------------------------------------------------|

	Bb					  G
e|---------------------------------------------------------------------------|
B|---------------------------------------------------------------------------|
G|---------------------------------------------------------------------------|
D|---------------------------------------------------------------------------|
A|----1-4-1-1-4-1-1-4-1-1-4-1-1-4-1-1-1----5-5-0-4-4-0-2-0-4-4-0-4-0-2-2-0---|
E|---------------------------------------------------------------------------|

Transition before final Chorus

e|---------------------------------------------------------------------------|
B|---------------------------------------------------------------------------|
G|------9---9----11--11---12--12----14--14-----------------------------------|
D|------x---x----x---x----x---x-----x---x-------now back into chorus---------|
A|------7---7----9---9----10--10----12--12-----------------------------------|
E|---------------------------------------------------------------------------|

Outro - repeat part of the intro riff

| s slide 
| h  hammer-on
| p  pull-off
| ~  vibrato
| +  harmonic
| x  Mute note
===============================================================================