Song name
# A B C D E F G H I J K L M N O P Q R S T U V W X Y Z

All Get Out - The Season tab

Tuning - standard

I think this is how it goes. Hard to time it right
intro and verse  
   Em         G            C
e|----------------------------------------|
b|---8---8///12--12----12\\\5---5---5---5-|
g|----------------------------------------|
d|----------------------------------------|
a|-7---7---7///10---10\\\\3---3---3---5---|
e|----------------------------------------|
   C       G        Am
e|----------------------------------------|
b|---5---5\\\3---3////13---13---13---13---|
g|----------------------------------------|
d|----------------------------------------|
a|-3---3\\\2---2///12---12---12---12------|
e|----------------------------------------|

At 0:50 and 1:50
  C/G   G   C/G   G
e|-0----3----0----3-|
b|-1----0----1----0-|
g|-0----0----0----0-|
d|-2----0----2----0-|
a|-3----2----3----2-|
e|-3----3----3----3-|

Chorus most of the rest of the song
   Em     G      C/G          C/G    G      Am
e|-0-0-0--3-3-3--0-0-0-0-0-0--0-0-0--3-3-3--0-0-0-0-0-0-|
b|-0-0-0--0-0-0--1-1-1-1-1-1--1-1-1--0-0-0--1-1-1-1-1-1-|
g|-0-0-0--0-0-0--0-0-0-0-0-0--0-0-0--0-0-0--2-2-2-2-2-2-|
d|-2-2-2--0-0-0--2-2-2-2-2-2--2-2-2--0-0-0--2-2-2-2-2-2-|
a|-2-2-2--2-2-2--3-3-3-3-3-3--3-3-3--2-2-2--0-0-0-0-0-0-|
e|-0-0-0--3-3-3--3-3-3-3-3-3--3-3-3--3-3-3--------------|

At 2:38 just play it like this a couple times
e|-------------------------------------------------------|
b|-------------------------------------------------------|
g|-------------------------------------------------------|
d|-------------------------------------------------------|
a|-------------------------------------------------------|
e|-0-0-0-3-3-3-8-8-8-8-8-8-3-3-3-8-8-8-3-3-3-5-5-5-5-5-5-|
Tap to rate this tab
# A B C D E F G H I J K L M N O P Q R S T U V W X Y Z