Song name
# A B C D E F G H I J K L M N O P Q R S T U V W X Y Z

All Get Out - Coach Connor tab

Tuning - Standard
couple changes from the other tab that's on here.
i usually just play f -033210
and d- x0023x
Intro
e|---------|------------------------------------------------------|
b|---------|----------------------------------------------------9-|
g|---------|----------------------------------------------------9-|
d|---------|-5-5-5-5-5-5-5-5-6-6-6-6-6-6-6-6-7-7-7-7-7-7-7-7--6-9-|
a|-----3---|-3-3-3-3-3-3-3-3-3-3-3-3-3-3-3-3-3-3-3-3-3-3-3-3--5---|
e|-3h5--h5-|------------------------------------------------------|

e|------------------------------------------------------------------------|
b|------------------------------------------------------------------------|
g|------------------------------------------------------------------------|
d|-5-5-5-5-5-5-5-5-6-6-6-6-6-6-6-6-7-7-7-7-7-7-7-7-6-6-6-6-6-6-6-6-5--5-5-|
a|-3-3-3-3-3-3-3-3-3-3-3-3-3-3-3-3-3-3-3-3-3-3-3-3-3-3-3-3-3-3-3-3-3--3-2-|
e|------------------------------------------------------------------------|
Am         G          C          F
  I still sit on the same white porch down the street
Am            G              C               F 
  Just to the right of the bed shades by the window
            Am              G
  In my seat the same three pair of shoes
    C               F              Am
  I never worn before sit by the door
              G                C
  Its funny I sit here all alone
e|------------------------|
b|------------------------|
g|-5-5-5--55-5-5-5--5-5---|
d|-5-5-5--55-5-5-5--5-5---|
a|-3-3-3--33-3-3-3--3-2-0-|
e|------------------------|

Am             G              C                 F
  I remember a time when this house was made of gold and hopes and dreams
Am              G              C                F
  I loved every minute every second and every thought of what it could be
Am             G          C         F 
  Took four to pay only three two afford, just barely
Am           G                  C
  Its funny I live here all alone
e|-------------------------------------------------------|
b|--------------------------------------5555555555555555-|
g|-5-5-5--55--5-5-5--55-5-5-5-5-5-5-5-5-5555555555555555-|
d|-5-5-5--55--5-5-5--55-5-5-5-5-5-5-5-5-5555555555555555-|
a|-3-3-3--33--3-3-3--33-3-3-3-3-3-3-3-3-3333333333333333-|
e|-------------------------------------------------------|

F
  The lights still turn on
D
  The air still blows both hot and cold
F
  The waters still running
D (actually silence)
  All the neighbors still think Im 12 years old
F
  Im working on eviction
D
  So where the hell could all of my friends be
F                            G
  I have no convictions just seven years so Im able to buy again

e|------------------------------------------------------------------
b|------------------------------------------------------------------
g|------------------------------------------------------------------
d|-5-5-5-5-5-5-5-5-6-6-6-6-6-6-6-6-7-7-7-7-7-7-7-7-6-6-6-6-6-6-6-6--
a|-3-3-3-3-3-3-3-3-3-3-3-3-3-3-3-3-3-3-3-3-3-3-3-3-3-3-3-3-3-3-3-3--
e|------------------------------------------------------------------
all this x2
e|----------------------------------------------------------|
b|----------------------------------------------------------|
g|----------------------------------------------------------|
d|-7-7-7-7-7-7-7-7-7-6-6-6-6-6-6-6-6-5-5-5-5-5-5-5-5-5--5-5-|
a|-3-3-3-3-3-3-3-3-3-3-3-3-3-3-3-3-3-3-3-3-3-3-3-3-3-3--3-2-|
e|----------------------------------------------------------|

Am G C F
Am G C F E
(end riff starts) 
Am G C F
Am then strum these once to end (C/B G C)

end riff
e|----------------------------------------------------------------|
b|----------------------------------------------------------------|
g|----------------------------------------------------------------|
d|----------------------------------------------------------------|
a|--------------------------------------------------------------3-|
e|-5-5-5-7h8-7-7-7-8h10-8-8-8-10h12-10-13-12-10---5-5-5-7h8-7-3---|


Tap to rate this tab
 
# A B C D E F G H I J K L M N O P Q R S T U V W X Y Z