Song name
# A B C D E F G H I J K L M N O P Q R S T U V W X Y Z

All Get Out - Lucky Bastard Acoustic tab

Tuning - Standard, Capo 2nd fret
Everything is relation to the capo

I learned this from a video of Nate playing it solo that use to be on youtube.
So this is more of an acoustic/solo version like the Daytrotter version.

intro
e|-------|
b|-------|
g|-------|
d|---3-5-|
a|-5-----|
e|-------|
verse - goes something like this                      do this for G sometimes
e|----------------------------------------------------------|-----------|
b|----------------------------------------------------------|-----------|
g|----------------------------------------------------------|---------0-|
d|---3---3---2--------------------3---3---2-----------------|-------0---|
a|-5---5---3---3---3-----2---2--5---5---3---3---3-----3---3-|----0h2----|
e|---------------5---5-3---3------------------5---5-1---1---|-0h3-------|
chorus
e|-0------0------0------0------0------0------0------|
b|-1------1------1------1------1------1------1------|
g|-2------0------2------0------2------0------2------|
d|-2(x8)--2(x8)--2(x8)--2(x8)--3(x8)--2(x8)--3(x16)-|
a|-0------3------0------3------3------3------3------|
e|--------3-------------3-------------3-------------|
bridge
     (x3)      (x1)
e|-0--3--0-|-0--3--0-|
b|-1--0--1-|-1--0--1-|
g|-2--0--0-|-2--0--2-|
d|-2--0--2-|-2--0--3-|
a|-0--2--3-|-0--2--3-|
e|----3--3-|----3----|
Tap to rate this tab
# A B C D E F G H I J K L M N O P Q R S T U V W X Y Z