Song name
# A B C D E F G H I J K L M N O P Q R S T U V W X Y Z

All Hands On Deck - The Barn tab

All Hands on Deck! - The Barn
Album: It's All We Know - EP

Tuning: Drop D

This is my first tab and I feel fairly proud of it. Anyway, I would have like to 
tab out the lead guitar but I simply couldn't hear it out well enough. I did learn 
the lead that was played in the intro but didn't think that it was worth listing. Enjoy the tab!


Intro:
E|-----------------------------------------------------------------------|
B|--------------------------------- Repeat 8x ---------------------------|
G|-----------------------------------------------------------------------|
D|--1-1---8--6--10---6-6---8-8-------------------------------------------|
A|--1-1---8--6--10---6-6---8-8-------------------------------------------|
D|--1-1---8--6--10---6-6---8-8-------------------------------------------|

E|-----------------------------------------------------------------------|
B|-------------------------------- Palm Mute 2x -------------------------|
G|-----------------------------------------------------------------------|
D|--1-1---8--6--10---6-6---8-8-------------------------------------------|
A|--1-1---8--6--10---6-6---8-8-------------------------------------------|
D|--1-1---8--6--10---6-6---8-8-------------------------------------------|



Verse:
E|----------------------------------- Play 2x ---------------------------|
B|----------------------------------- Palm Mute 2x ----------------------|
G|-----------------------------------------------------------------------|
D|--1-1---1--6-6---6--3-3---3--6-6---6--1-1------------------------------|
A|--1-1---1--6-6---6--3-3---3--6-6---6--1-1------------------------------|
D|--1-1---1--6-6---6--3-3---3--6-6---6--1-1------------------------------|



Chorus:
E|-----------------------------------------------------------------------|
B|--------------------------------- Repeat 4x ---------------------------|
G|-----------------------------------------------------------------------|
D|--1- x8 --6- x8 --3- x8 --6- x8 ---------------------------------------|
A|--1-------6-------3-------6--------------------------------------------|
D|--1-------6-------3-------6--------------------------------------------|



2nd Verse:
E|-----------------------------------------------------------------------|
B|--------------------------------- Repeat 8x ---------------------------|
G|-----------------------------------------------------------------------|
D|--111--1111------666--6666------333--3333------666--6666---------------|
A|--111--1111------666--6666------333--3333------666--6666---------------|
D|--111--1111------666--6666------333--3333------666--6666---------------|


 
Chorus:
E|-----------------------------------------------------------------------|
B|--------------------------------- Repeat 4x ---------------------------|
G|-----------------------------------------------------------------------|
D|--1- x8 --6- x8 --3- x8 --6- x8 ---------------------------------------|
A|--1-------6-------3-------6--------------------------------------------|
D|--1-------6-------3-------6--------------------------------------------|



Outro:
E|-----------------------------------------------------------------------|
B|------ Repeat 3x -------------------- 4th Time-------------------------|
G|-----------------------------------------------------------------------|
D|--11--1--111--11--1111---------------11--1--111------------------------|
A|--11--1--111--11--1111---------------11--1--111------------------------|
D|--11--1--111--11--1111---------------11--1--111------------------------|

Notice that the pattern is 2, 1, 3, 2, 4. This will be repeated for the remainder 
of the outro while changing the chords that are being played (which are listed below).


Outro cont.:
E|-----------------------------------------------------------------------|
B|--------------------------------- Repeat 4x ---------------------------|
G|-----------------------------------------------------------------------|
D|--1---3---5---6--------------------------------------------------------|
A|--1---3---5---6--------------------------------------------------------|
D|--1---3---5---6--------------------------------------------------------|


End:
E|-----------|
G|-----------|
D|--1--------|
A|--1--------|
D|--1--------|
Tap to rate this tab
# A B C D E F G H I J K L M N O P Q R S T U V W X Y Z