Guitaretab - guitar tabs
Song name
# A B C D E F G H I J K L M N O P Q R S T U V W X Y Z

All Shall Perish - Never Ending War tab

Alright there is no tab anywhere for this song.
This song owns. ASP owns. Don't agree? Suck a fat one.
I had to figure all this out by ear, it was hard so please appreciate it.
I'm not sure how many people will actually want this tab so I'll take it slow and post more later.
Listen to the song for the repeats.

Ok back by popular demand (1 guy) I'm here to finish
the tab.  If I don't have 2 individual guitars it means that they're 
doubled up on that riff.

Tuning is Drop-B(high to low):C#,G#,E,B,F#,B

Tab legend:
...:Palm Mute
*:Pinch Harmonic
~: Vibrato
"": Tremolo pick

Riff 1: A Gtr 1(This is a pretty slow riff)
|---------------------------|
|---------------------------|
|---------------------------|
|-0-33-0-66-0-33-0-66-00-2*-|
|-0-33-0-66-0-33-0-66-00----|
|-0-33-0-66-0-33-0-66-00----|
  .    .    .    .    ..

Riff 1: A Gtr 2
|---------------------------|
|---------------------------|
|---------------------------|
|-0-33-0-66-0-33-0-66-00-2--|
|-0-33-0-66-0-33-0-66-00-2--|
|-0-33-0-66-0-33-0-66-00-2--| 
  .    .    .    .    ..
Riff 1: B
|-------------------------|
|-------------------------|
|-------------------------|
|-0-33-0-66-00-3-2-3-2-3-2-3-2-0-|
|-0-33-0-66-00-3-2-3-2-3-2-3-2-0-|
|-0-33-0-66-00-3-2-3-2-3-2-3-2-0-|
  .    .    .. . . . . . . . . .

Riff 2(0:44)
|--------------------------------------------------------------------------|
|--------------------------------------------------------------------------|
|--------------------------------------------------------------------------|
|-0--6--3------------------------------------------------------------------|
|-0--6--3--000-000-000-000-000-000-000-000-000-000-000-000-000-000-000-000-|
|-0--6--3--000-000-000-000-000-000-000-000-000-000-000-000-000-000-000-000-|
           ... ... ... ... ... ... ... ... ... ... ... ... ... ... ... ...

Riff 3 (1:10)
|-----------------------------------------------|
|-----------------------------------------------|
|-----------------------------------------------|
|-----------------------------------------------|
|-0------------------5-0--------3-2-3-2-3-2-3-2-|
|-0-000-000-00-3-5-6-5-0-000-00-3-2-3-2-3-2-3-2-|
  . ... ... .. . . .   . ... .. . . . . . . . .

Riff 4 (1:42)
|---------------------------------------------------------------|
|---------------------------------------------------------------|
|---------------------------------------------------------------|
|---------------777---------------------------------------------|
|-0-555-777-888-----888-777-555-----555-888-555-----555-----555-|
|-0-----------------------------888-------------888-----777-----|
  . """ """ """ """ """ """ """ """ """ """ """ """ """ """ """

Riff 5: A (1:59)
|-----------------------------------|
|-----------------------------------|
|-----------------------------------|
|-----7---5---8-7-5-----7---5---3-2-|
|-----------------------------------|
|-0-0---0---0-------0-0---0---0-----|
  . .   .   .       . .   .   .

Riff 5: B (The other guitar might be doing this,
I'm not sure...all I know is there is a tonal change after
they play this riff twice)
|-----------------------------------|
|-----------------------------------|
|-----------------------------------|
|-----7---5---8-7-5-----7---5---3-2-|
|-5-5---5---5-------5-5---5---5-----|
|-----------------------------------|
  . .   .   .       . .   .   .
[ Tab from: http://www.guitaretab.com/a/all-shall-perish/106747.html ]
Riff 6 (2:15)
|------------------------------------------|
|------------------------------------------|
|------------------------------------------|
|------------------------------------------|
|--------------888888-7777777--------------|
|-000000000000----------------000000000000-|

Repeat Riff 5 at (2:31)

Repeat Riff 6 at (2:48)

Riff 7 (2:56)
|------------------|
|------------------|
|------------------|
|-0----8---7---0---|
|-0----8---7---0---| Let ring
|-0----8---7---0---|

Riff 8 (3:14) Hate, Malice, Revenge
|--------------------------------|
|--------------------------------|
|--------------------------------|
|--------------------------------|
|-0000--0000--0000--000--000000--|
|-0000--0000--0000--000--000000--|
  ....  ....  ....  ...  ......

Riff 9 (3:25)
|----------------------------------------------------|
|----------------------------------------------------|
|-------------------------7--------------------------|
|------------6--------------6------------6---------6-|
|------5-7-8--------5-7-8----------5-7-8-----------4-|
|-0000---------0000-----------0000---------0-0-0-0---|
  ....         ....           ....         . . . .

Riff 10 (3:45)
|----------------------------------------------------|
|----------------------------------------------------|
|-------------------------4--------------------------|
|------------6---------------------------6---------6-|
|------5-7-8--------5-7-8----------5-7-8-----------4-|
|-0000---------0000-----------0000---------0-0-0-0---|
  ....         ....           ....         . . . .

Repeat Riff 8 at (4:08)

Riff 11 (4:18)
|-------------------------------------|
|-------------------------------------|
|-------------------------------------|
|-0-0---0-0---0-0---0-0-0--0-0-0--0-0-|
|-0-0---0-0---0-0---0-0-0--0-0-0--0-0-|
|-0-0---0-0---0-0---0-0-0--0-0-0--0-0-|
  . .   . .   . .   . . .  . . .  . .

Riff 4 Altered at (4:31)
Gtr 1
|---------------------------------------------------------------|
|---------------------------------------------------------------|
|---------------------------------------------------------------|
|---------------777---------------------------------------------|
|---555-777-888-----888-777-555-----555-888-555-----555-----555-|
|-------------------------------888-------------888-----777-----|
    """ """ """ """ """ """ """ """ """ """ """ """ """ """ """

Gtr 2 (let chords ring)
|---------------------------------------------------------------|
|---------------------------------------------------------------|
|---------------------------------------------------------------|
|-0-----------------------------8---------------7---------------|
|-0-----------------------------8---------------7---------------|
|-0-----------------------------8---------------7---------------|


Riff 4 again at (4:45) with both guitars doubled 
up on the tremolo riff

Riff 11 (5:00)
|-------------------------------------------------|
|-------------------------------------------------|
|-------------------------------------------------|
|-------777-555---888-777-555---------888-777-555-|
|-------------------------------------------------|
|-000---------------------------888---------------|

Riff 12 (5:14)
|--------------------------------------------------------------|
|--------------------------------------------------------------|
|--------------------------------------------------------------|
|----7--5---8-7-5-------8-7-5-----7--5---8-7-5----------8-7-5*-|
|-0----------------8-8---------0----------------8--8-8---------|
|-0----------------8-8---------0----------------8--8-8---------|
  .                . .         .                .  . .

Ends at (6:10) with
|------------|
|------------|
|------------|
|-8--7--5--7-|
|------------|
|------------|

We must not, just sit here and watch as we die away.
So easy to forget, don't close your eyes.


Related for Never Ending War tab