Guitaretab - guitar tabs
Song name
# A B C D E F G H I J K L M N O P Q R S T U V W X Y Z

All Shall Perish - Nerver Again tab

SONG: Never... Again (One Riff)
BAND: All Shall Perish
CD: Awaken The Dreamers
Tabbed By: "leito" (Argentina)


[ Tab from: http://www.guitaretab.com/a/all-shall-perish/117746.html ]
C#|-------|---------13-17-15-13------------------------------------|
G#|--15~~-|-------15------------17-15-13-15-1111-1313-10~~~~-------|
 E|-------|-----14-------------------------------------------------|
 B|-------|---15---------------------------------------------------|
F#|-------|-17-----------------------------------------------------|
 B|-------|--------------------------------------------------------|

C#|----------------------------------------------------------|
G#|--10-8-10-11-10-11-13-11-13-15-13-15-17-15-17-18-17-18-21-|
 E|----------------------------------------------------------|
 B|----------------------------------------------------------|
F#|----------------------------------------------------------|
 B|----------------------------------------------------------|

i think is correct but if i miss let me now ^^

www.youtube.com/leoslipknot see me playing another songs ^^
Related for Nerver Again tab