Song name
# A B C D E F G H I J K L M N O P Q R S T U V W X Y Z

All Shall Perish - Black Gold Reign tab

they usually play with 7 trings but i only have 6 so im tabbing it for that

KEY:
T tap
/ slide
*(note inbetween is a pinch harmonic)*


C#--------------------------------------------------------------------------------|
A---------------------------------------------------------------------------------|
E---------------------------------------------------------------------------------|
B--4-4-4-444-4-4-4-444---                                          ----444-4444---|
F#-4-4-4-444-4-4-4-444---<--some garbage like that then end it with----444-4444---|
B--4-4-4-444-2-2-2-222---                                          ----444-4444---|


the first lead part is in groups of four

C#-----------------------------------10-12-------------------------------------|
A---------------------------10-12-14-------14-12-10----------------------------|
E-------------------9-11-13-------------------------13-11-9--------------------|
B-----------9-11-12-----------------------------------------12-11-9------------|
F#--9-11-12---------------------------------------------------------12-11-*9*--|
B------------------------------------------------------------------------------|

C#---------------------------------------------------------------------------|
A----------------------------------------------------------------------------|
E---------11-------11-------11-------11--------18--------18--------16--------|
B-------11-------11-------11-------11--------19--------19--------16----------|
F#--9h12-----9h12-----9h12-----9h12-----17h21-----17h21-----14h17-----14h17--|
B----------------------------------------------------------------------------|

C#-14-12-10-9----------------------------------------------------------|
A-------------12-10-9-7-------------------------------------9----------|
E-----------------------9-7-6-----------------------6-7-9-11--11-9-7-6-|
B-----------------------------9-7-6-----------6-7-9--------------------|
F#----------------------------------9-7-5-7-9--------------------------|
B----------------------------------------------------------------------|


this is all i feel like tabbing, forgive me if im wrong but im prety sure its close
to help, you can listen to it and ear it out like i did if this isnt good egnough.

-shane
Tap to rate this tab
# A B C D E F G H I J K L M N O P Q R S T U V W X Y Z