Guitaretab - guitar tabs
Song name
# A B C D E F G H I J K L M N O P Q R S T U V W X Y Z

All Shall Perish - The Spreading Disease tab

All Shall Perish
The Spreading Disease
Hate, Malice, Revenge

This is my first tab, so constructive criticism is well appreciated. Iím near positive 
all of the notes are correct. Iím sure you can tell where to put the palm mutes, because 
tried to show were they are and it was a disaster.

Key:
	/=slide down
	\=slide up
	B=bend string
	*=pinch harmonic
	P.M.=palm mute

|---------------------------------------------------------------|
|---------------------------------------------------------------|
|---------------------------------------------------------------|
|3---4---3---------3---4---3---------3---4---3---------3------6-| x2
|3---4---3---------3---4---3---------3---4---3---------3------6-|
|3-0-4-0-3-0-0-0-0-3-0-4-0-3-0-0-0-0-3-0-4-0-3-0-0-0-0-3------6-|

|-----------------|
|-----------------|
|-----------------|
|-0-3-2-5-4-7-6-1-| x2
|-0-3-2-5-4-7-6-1-|
|-0-3-2-5-4-7-6-1-|

|-------------------|
|-------------------|
|-------------------|
|-00-3-2-55-4-7-6-1-| x2
|-00-3-2-55-4-7-6-1-|
|-00-3-2-55-4-7-6-1-|

|---------------------------------|
|---------------------------------|
|---------------------------------|
|-0-0-3-3-2-2-5-5-4-4-7-7-6-6-1-1-| x2
|-0-0-3-3-2-2-5-5-4-4-7-7-6-6-1-1-|
|-0-0-3-3-2-2-5-5-4-4-7-7-6-6-1-1-|

|-------------------------|
|-------------------------| tremolo picked
|-------------------------|
|-------------------------| x2
|-------------------------|
|000333222555444777666111-|

|---------------------------------|----------|
|---------------------------------|----------|
|---------------------------------|----------|
|---------------------------------|-33223322-|
|-5---00115544444444---5---001155-|----------|
|---------------------------------|----------|

Play that twice, then substitute the last segment with

|---------|
|---------|
|---------|
|-3-2-3-2-|
|-3-2-3-2-|
|-3-2-3-2-|

Overall, play the above segments 2 times

|----------------------|
|----------------------|
|----------------------|
|--------------------3-| x8
|-5----1----5----1-----|
|---00---00--00--------|

|-------------------------------------------------------------------------|
|-------------------------------------------------------------------------|
|-------------------------------------------------------------------------|
|-------------------------------------------------------------------------|
|-00--0000000--0000000--0000000--0000000--0000000--0000000--0000000--0000-|
|-00--0000000--0000000--0000000--0000000--0000000--0000000--0000000--0000-|

|-----------------------------------------------------------|
|-----------------------------------------------------------|
|-----------------------------------------------------------|
|-1-0---0-1-0-3-5-1-0---0-1-0-3-3---------------------------| x2
|-1-0---0-1-0-3-5-1-0---0-1-0-3-1--1-0---0-1-0-3-5-4-4----1-|
|-1-0---0-1-0-3-5-1-0---0-1-0-3----1-0---0-1-0-3-5-4-4-44-1-|

|--------------------------------------------------|-------------|
|--------------------------------------------------|-------------|
|--------------------------------------------------|-------------|
|-1-0---0-1-0-3-5-1-0---0-1-0-3-3------------------|-------------| x2
|-1-0---0-1-0-3-5-1-0---0-1-0-3-1--1-0---0-1-0-3-5-|-4-4----1----|
|-1-0---0-1-0-3-5-1-0---0-1-0-3----1-0---0-1-0-3-5-|-4-4-44-1----|
 |-------------------P.M.----------------------------------------|

The last bit of the above segment is only played once
[ Tab from: http://www.guitaretab.com/a/all-shall-perish/179298.html ]
|------------------------------------------------|-------------------|
|------------------------------------------------|-------------------|
|------------------------------------------------|---------------7b*-|
|-1-----1-----1---1-----1-----1---1-----1-----1--|-------------------|
|-1-----1-----1---1-----1-----1---1-----1-----1--|-12-11-8-5-6-8-----| x4
|-1---0-1---0-1---1---0-1---0-1---1---0-1---0-1--|-12-11-8-5-6-8-----|

On the fourth repetition, do a pick slide instead of the last segment.

|-------------------------------------------------------------------------|
|-------------------------------------------------------------------------|
|-------------------------------------------------------------------------|
|-1-----1-------1---1-----1-------1---1-----1-------1-----------------7b*-|
|-1-----1-------1---1-----1-------1---1-----1-------1---12-11-8-5-6-8-----|
|-1-0-0-1-0-0-0-1-0-1-0-0-1-0-0-0-1-0-1-0-0-1-0-0-0-1-0-12-11-8-5-6-8-----|


|--------------------------------------------------------------------------|
|--------------------------------------------------------------------------|
|--------------------------------------------------------------------7b*---|
|-1-----1-------1---1-----1-------1---1-----1-------1--------------------0-|
|-1-----1-------1---1-----1-------1---1-----1-------1---12-11-8-5-6-8----0-|
|-1-0-0-1-0-0-0-1-0-1-0-0-1-0-0-0-1-0-1-0-0-1-0-0-0-1-0-12-11-8-5-6-8----0-|

|------------------------------------------------------------|
|------------------------------------------------------------|
|------------------------------------------------------------|
|------------------------3333---------------------3----------| x3
|-------------------5---1-----------------------------1-0000-|
|-00000000000000000------------000000000000000000------------|

|-----------------------------------------------------------|
|-----------------------------------------------------------|
|-----------------------------------------------------------|
|---------------------------------------0-3-2-5-4-6-5-2-1-2-| x4
|-000-000---000-000-222-111-000-000-------------------------|
|-000-000---000-000-222-111-000-000-------------------------|

|------------|
|------------|
|------------|
|-0----------|
|-0----------|
|-0----------|

|----------------------------------------------------------------|
|----------------------------------------------------------------|
|----------------------------------------------------------------|
|-0---------------1/2---2\1---1/2-0---------------3----1-----1/2-|
|-0---0-0-0-0-0-0-1/2---2\1---1/2-0---------------1----1-----1/2-|
|-0---0-0-0-0-0-0-1/2-0-2\1-0-1/2-0---0-0-0-0-0-0----0-1---0-1/2-|

-----------------------------------------------------------------|
-----------------------------------------------------------------|
-----------------------------------------------------------------|
-0---------------1/2-2-2\1-1-1/2-0---------------3-----1---------| x2
-0---0-0-0-0-0-0-1/2-2-2\1-1-1/2-0---0-0-0-0-0-0-1-----1---0-1/2-|
-0---0-0-0-0-0-0-1/2-2-2\1-1-1/2-0---0-0-0-0-0-0----0--1---0-1/2-|

|------------------------------------------------------------------|
|------------------------------------------------------------------|
|------------------------------------------------------------------|
|------------------1/2---2\1---1/2-0----------------1----1-----1/2-| x2
|-0---00000---0000-1/2---2\1---1/2-0---00000---0000-3----1-----1/2-|
|-0---00000---0000-1/2-0-2\1-0-1/2-0---00000---0000----0-1---0-1/2-|

|-----------------------------------|
|-----------------------------------|
|-----------------------------------|
|-0---------------3-----1-----1/2-0-|
|-0---------------1-----1-----1/2-0-|
|-0-0-0-0-0-0-0-0---0-0-1-0-0-1/2-0-|

Hope you enjoy this tab. Good luck!
Related for The Spreading Disease tab