Song name
# A B C D E F G H I J K L M N O P Q R S T U V W X Y Z

All Shall Perish - Interlude tab

standard tuning
this is how it sounds to me so good luck chuck...
b.t.w this is only the first guitar

|-----------------------------------------------------------------|
|-----------------------------------------------------------------|
|-----------------------------------------------------------------|
|--4----------4----------------------4----------4----------7------|  
|-2--5------5---5-/7--5--4--5------5---5------5---5-/7--5-----5---|
|0--------0----------------------0----------0---------------------|


|-----------------------------------------------------------------|
|-----------------------------------------------------------------|
|-----------------------------------------------------------------|
|----4----------4----------------------4----------4----------7----|
|--5---5------5---5-/7--5--4--5------5---5------5---5--/7--7---7--|
|3---------3----------------------3----------3--------------------|

your's truely, 
oiman
Tap to rate this tab
 
# A B C D E F G H I J K L M N O P Q R S T U V W X Y Z