Song name
# A B C D E F G H I J K L M N O P Q R S T U V W X Y Z

All Shall Perish - The Last Relapse tab

-----------------------------------------------------------------------------
			    THE LAST RELAPSE - All Shall Perish
-----------------------------------------------------------------------------
Tabbed by: Hawkeye4077

Tuning: Drop D if you want to continue through the song but standard is fine for this bit.

The piano bit:

e|---------------------------------------------------------------------------|
B|---------------------------------------------------------------------------|
G|---------------------------------------------------------------------------|
D|------4--4--2--2--4--4--2--0--0--0--2--0-----------------------------------|
A|--2--------------------------------------4--4--5--4--5--2------------------|
E|---------------------------------------------------------------------------|

e|---------------------------------------------------------------------------|
B|---------------3-----2---------------------------------7-------------------|
G|------------2-----2-----4--6-6-6\7-7-7\9-9-9--7--6--4-----4----------------|
D|--5--4--2------------------------------------------------------------------|
A|---------------------------------------------------------------------------|
E|---------------------------------------------------------------------------|

The guitar bit afterwards:

e|---------------------------------------------------------------------------|
B|---------------------------------------------------------------------------|
G|---------------------------------------------------------------------------|
D|---------------------------------------------------------------------------|
A|---2--4-4-4--2-2-2--4-4-4--2-2-2--4-4-4\5-5-5\7-7-7--5--4------------------|
E|---------------------------------------------------------------------------|

e|---------------------------------------------------------------------------|
B|---------------------------------------------------------------------------|
G|---------------------------------------------------------------------------|
D|---------------------------------------------------------------------------|
A|---2--4-4-4--2-2-2--4-0-5-0-4----------------------------------------------|
E|---------------------------------------------------------------------------|

e|---------------------------------------------------------------------------|
B|---------------------------------------------------------------------------|
G|---------------------------------------------------------------------------|
D|---------------------------------------------------------------------------|
A|---2--4-4-4\5-5-5\7-7-7--5--4--2--4-4-4\5-5-5\7-7-7--5--4------------------|
E|---------------------------------------------------------------------------|

e|---------------------------------------------------------------------------|
B|---------------------------------------------------------------------------|
G|---------------------------------------------------------------------------|
D|---------------------------------------------------------------------------|
A|---2--4-4-4--2-2-2--4-0-5-0-4----------------------------------------------|
E|---------------------------------------------------------------------------|

e|---------------------------------------------------------------------------|
B|---------------------------------------------------------------------------|
G|---------------------------------------------------------------------------|
D|---------------------------------------------------------------------------|
A|---2--4-4-4\5-5-5\7-7-7--5--4--2--4-4-4\5-5-5\7-7-7--5--4------------------|
E|---------------------------------------------------------------------------|

e|---------------------------------------------------------------------------|
B|---------------------------------------------------------------------------|
G|---4--6-6-6\7-7-7\9-9-9--7--6--4--6-6-6\7-7-7\9-9-9--7--6------------------|
D|---------------------------------------------------------------------------|
A|---------------------------------------------------------------------------|
E|---------------------------------------------------------------------------|

e|---------------------------------------------------------------------------|
B|---------------------------------------------------------------------------|
G|---4--6-6-6--4-4-4--6-----7-----6------------------------------------------|
D|-----------------------7-----7---------------------------------------------|
A|---------------------------------------------------------------------------|
E|---------------------------------------------------------------------------|

e|---------------------------------------------------------------------------|
B|---------------------------------------------------------------------------|
G|---4--6-6-6\7-7-7\9-9-9--7--6--4--6-6-6\7-7-7\9-9-9--7--6------------------|
D|---------------------------------------------------------------------------|
A|---------------------------------------------------------------------------|
E|---------------------------------------------------------------------------|

e|---------------------------------------------------------------------------|
B|---------------------------------------------------------------------------|
G|---4--6-6-6--4-4-4--6-----7-----6--4---------------------------------------|
D|-----------------------7-----7---------------------------------------------|
A|---------------------------------------------------------------------------|
E|---------------------------------------------------------------------------|
Tap to rate this tab
# A B C D E F G H I J K L M N O P Q R S T U V W X Y Z