Song name
# A B C D E F G H I J K L M N O P Q R S T U V W X Y Z

All Shall Perish - Interlude tab

C#||----------------------|-------------------|----------------------|
G#||----------------------|-------------------|----------------------|
E ||------------2---------|-------------------|------------2---------|
B ||-----------------3----|--L----------------|-----------------3----|
F#||-------0--------------|-------------------|-------0--------------|
B ||--0-------------------|-------------------|--0-------------------|


                
-----------------------|----------------------|-------------------|
-----------------------|----------------------|-------------------|
-----------------------|------------2---------|-------------------|
--/5----3----2----3----|-----------------3----|--L----------------|
-----------------------|-------0--------------|-------------------|
-----------------------|--0-------------------|-------------------|


   
----------------------|-----------------------|----------------------|
----------------------|-----------------------|----------------------|
------------2---------|-----------------------|------------2---------|
-----------------3----|--/5----3----2----3----|-------3---------3----|
-------0--------------|-----------------------|--1-------------------|
--0-------------------|-----------------------|----------------------|



-------------------|----------------------|-----------------------|
-------------------|----------------------|-----------------------|
-------------------|------------2---------|-----------------------|
--L----------------|-------3---------3----|--/5----3----2----3----|
-------------------|--1-------------------|-----------------------|
-------------------|----------------------|-----------------------|



----------------------|-------------------|----------------------|
----------------------|-------------------|----------------------|
------------2---------|-------------------|------------2---------|
-------3---------3----|--L----------------|-------3---------3----|
--1-------------------|-------------------|--1-------------------|
----------------------|-------------------|----------------------|


      
-----------------------||
-----------------------||
-----------------------||
--/5----3----2----3----||
-----------------------||
-----------------------||


1st guitar that plays the whole song.
Tap to rate this tab
# A B C D E F G H I J K L M N O P Q R S T U V W X Y Z