Song name
# A B C D E F G H I J K L M N O P Q R S T U V W X Y Z

All Shall Perish - Gagged Bound Shelved And Forgotten tab

----------------------------------------------------------------------------
	    GAGGED, BOUND, SHELVED AND FORGOTTEN - All Shall Perish
----------------------------------------------------------------------------

Tabbed by: Aaron Strachan
Email: aj_strachan@hotmail.co.uk

Tuning: Drop B

This tab is UNCOMPLEATED, i shall finish it soon. Hope you like what there is.


Intro
C#|---------------------|
G#|---------------------|
E |---------------------|
b |-0-0-0-0-00--000-000-|
F#|-0-0-0-0-00--000-000-|
B |-0-0-0-0-00--000-000-|
    x x x x xx  xxx xxx

Guitar 1 0:02
C#|---------------------------------------------------------------|
G#|---------------------------------------------------------------|x3
E |---------------------------------------------------------------|
b |------------------------------------------------2-3-5-3-2h3p2--|
F#|----5-4-5-4h5p4-1-4-1-0--1-0------5-4-5-4h5p4-1--------------3-|
B |-0---------------------------1-0-------------------------------|

Guitar 2 0:10
C#|---------------------------------------------------------------|
G#|---------------------------------------------------------------|x2
E |---------------------------------------------------------------|
b |----3-2-3-2h3p2---3---------------3-2-3-2h3p2---5-7-8-7-5h7p5--|
F#|----------------4---5-4--5p4------------------4--------------8-|
B |-0--------------------------7-0--------------------------------|

Verse 0:24

Guitar 1
C#|----------------------------------------------------------------|
G#|----------------------------------------------------------------| x2
E |----------------------------------------------------------------|
b |-0--0--0000-00--0000-00--000-000-0--0--0000-00--0000-00---------|
F#|-0--0--0000-00--0000-00--000-000-0--0--0000-00--0000-00-7875454-|
B |-0--0--0000-00--0000-00--000-000-0--0--0000-00--0000-00--------8|
    x  x  xxxx xx  xxxx xx  xxx xxx x  x  xxxx xx  xxxx xx

Guitar 2
C#|--------------------------------------------------16--16--|
G#|--------------------------------------------------21--21--|
E |----------------------------------------------------------|  x2
b |-0--0--0000-00--0000-00--000-000-0--0--0000-00--00--00----|
F#|-0--0--0000-00--0000-00--000-000-0--0--0000-00--00--00----|
B |-0--0--0000-00--0000-00--000-000-0--0--0000-00--00--00----|
    x  x  xxxx xx  xxxx xx  xxx xxx x  x  xxxx xx  xx xx

Chorus 

Guitar 1 0:40
C#|-------------------------|
G#|-------------------------|
E |-------------------------| x4
b |-------------3-----------|
F#|---5-4-5-4-5---5-4-5-4-1-|
B |-0-----------------------|

Guitar 2 0:47
C#|-------------------------|
G#|-------------------------|
E |-------------------------| x2
b |-------------6-----------|
F#|---8-7-8-7-8---8-7-8-7-3-|
B |-0-----------------------|





| /  slide up
| \  slide down
| h  hammer-on
| p  pull-off
| ~  vibrato
| +  harmonic
| x  Muted note
Tap to rate this tab
# A B C D E F G H I J K L M N O P Q R S T U V W X Y Z