Song name
# A B C D E F G H I J K L M N O P Q R S T U V W X Y Z

All Shall Perish - Greyson tab

---------------------------------------------------------------------------
			     GREYSON - All Shall Perish
---------------------------------------------------------------------------
Tabbed by: Aaron Strachan
Email: aj_strachan@hotmail.co uk

Tuning: Drop B

The rest will be up soon!

Main Tune
C#|---------------------------|--------------------------|
G#|---------------------------|--------------------------|
E |-------------------------x2|------------------------x2|
b |-----7------7--------------|-----7------7-------------|
F#|----5-8----5-8-8/10-8-7-8--|----8-8----8-8-8/10-8-7-8-|
B |---0------0----------------|---8------8---------------|

Solo

Guitar 1                                 _____________x2_______________
C#|----------66---66----------66---66-----------------------------------|
G#|------------------------------------------10-8----------------10-8---|
E |--7-9-10----10---10--7-9-7---10---10--7-10----10-10-9-10-7-10-----10-|
b |---------------------------------------------------------------------|
F#|---------------------------------------------------------------------|
B |---------------------------------------------------------------------|

Guitar 2                                      ___________x2_____________
C#|----------------------------------------------------------------------|
G#|---------1313--1313-----------1313--1313-------1311------------1311---|
E |-10-12-14----14----14-10-12-10----14----14-1014----141412141014----14-|
b |----------------------------------------------------------------------|
F#|----------------------------------------------------------------------|
B |----------------------------------------------------------------------|

Guitar 1
C#|------------------------------------------------------------------------|
G#|------------------------------5h6p5--------------------1011131110--10---|
E |------------------------5-5757-----7-------------791012----------12--10-|
b |-12b10h12p10------5-5757-7-----------7---75-57810-----------------------|
F#|------------12-858-8-----------------------8----------------------------|
B |------------------------------------------------------------------------|

Then an insanly fast bit i could work out from guitar  2


| /  slide up
| \  slide down
| h  hammer-on
| p  pull-off
| ~  vibrato
| +  harmonic
| x  Mute note
===============================================================================
Tap to rate this tab
# A B C D E F G H I J K L M N O P Q R S T U V W X Y Z