Song name
# A B C D E F G H I J K L M N O P Q R S T U V W X Y Z

All Shall Perish - Black Gold Reign tab


All Shall Perish - Black gold reign intro tab


 *=Pinch

Intro solo I

|-------------------------------------------------------------------------|
|----9-11-12-------------------------------------------------12-11-9*-----|
|------------9-11-12---------------------------------12-11-9--------------|
|--------------------9-11-------------------13-11-9-----------------------|
|-------------------------9-11-13---13-11-9-------------------------------|
|--------------------------------10---------------------------------------|



 Sweep pick

C#|---------|---------|----------|
A |---------|---------|----------|
E |---------|-----18--|----------|
B |---16----|---14----|---18-----|
F#|--12-----|--14-----|--14------|
B |-12------|---------|-14-------|
       x4       X2        X1         


Intro solo II

 b= bend note

C#|------------------------------------------------------------------------------------|
A |----------------------------------------14------------------------------------------|
E |------------------------------16-14-12------11-12-14--------------------------------|
B |---------------------16-14-13-------------------------11-13-14----------14-13-11b---|
F#|------------16-14-13-------------------------------------------11-13-11-------------|
B |--17-16-14--------------------------------------------------------------------------|


 Sweep pick

 
Repeat as needed

C#|---------|---------|----------|
A |---------|---------|----------|
E |---------|-----18--|----------|
B |---16----|---14----|---18-----|
F#|--12-----|--14-----|--14------|
B |-12------|---------|-14-------|


C#|------------|---------|---------|----------|
A |------------|---------|---------|----------|
E |------------|---------|---------|----------|
B |------19----|---16----|---14----|---18-----|
F#|----16------|--12-----|--14-----|--14------|
B |--16--------|-12------|---------|-14-------|
       
This is my first tab and only of the first two solos and sweep pattern (:
Hope it helps.
Tap to rate this tab
 
# A B C D E F G H I J K L M N O P Q R S T U V W X Y Z