Guitaretab - guitar tabs
Song name
# A B C D E F G H I J K L M N O P Q R S T U V W X Y Z

All Shall Perish - Day Of Justice tab

-------------------------------------------------------------------------------
                         DAY OF JUSTICE - All Shall Perish
-------------------------------------------------------------------------------
Tabbed by: Tyler Snedigar
Email: asiwsguitar@yahoo.com

Tuning: CGCFAD

Both Guitars
D|----------------------------------------------------------------------------|
A|----------------------------------------------------------------------------|
D|----------------------------------------------------------------------------|
c|-----12---------------------7------------------7------------------3---------|
G|----------12---7---8---10-----10p8p7-------8-------7-8-7------5-------5-7-5-|
C|-0-0----0----0---0---0----0------------0-0---0---0--------0-0---0---0-------|
 PM. .    .    .   .   .    .            . .   .   .        . .   .   .


D|----------------------------------------------------------------------------|
A|----------------------------------------------------------------------------|
D|----------------------------------------------------------------------------|
c|-----12---------------------7------------------7------------------3---------|
G|----------12---7---8---10-----10p8p7-------8-------7-8-7------5-------5-7-5-|
C|-0-0----0----0---0---0----0------------8-8---8---8--------5-5---5---5-------|
 PM. .    .    .   .   .    .            . .   .   .        . .   .   .
[ Tab from: http://www.guitaretab.com/a/all-shall-perish/78069.html ]
  Gtr. 1 (Lead)
D|---------------------------------------------------------------------------|
A|---------------------------------------------------------------------------|
D|---------------------------------------------------------------------------|
c|-----12---------------------7-----------------7-8-7-------------5-7-5------|
G|----------12---7---8---10-----10p8p7---7-8-10-------10-8--5-7-8-------8-7--|
C|-0-0----0----0---0---0----0------------------------------------------------|
 | . .    .    .   .   .    .            . . .  .           . . . . 
 |Gtr. 2 (Rhythm)
D|---------------------------------------------------------------------------|
A|---------------------------------------------------------------------------|
D|---------------------------------------------------------------------------|
c|-----12---------------------7-----------------3-5-3-------------2-3-2------|
G|----------12---7---8---10-----10p8p7---3-5-7--------7--5--2-3-5-------5-3--|
C|-0-0----0----0---0---0----0------------------------------------------------|
 PM. .    .    .   .   .    .            . . .  .           . . . .

  Gtr. 1 (Lead)
D|-----------------------------------------------151-----------040-----------|
A|----------------------------------------------3---3---------2---2----------|
D|---------------------------------------------2-----2-------1-----1---------|
c|-----12---------------------7---------------3-------3-----2-------2--------|
G|----------12---7---8---10-----10p8p7-----1-5---------5-0-4---------4-------|
C|-0-0----0----0---0---0----0------------------------------------------------|
 | . .    .    .   .   .    .
 |Gtr. 2 (Rhythm)
D|---------------------------------------------------------------------------|
A|---------------------------------------------------------------------------|
D|---------------------------------------------------------------------------|
c|-----12---------------------7----------------------------------------------|
G|----------12---7---8---10-----10p8p7-----8-------------7-------------------|
C|-0-0----0----0---0---0----0--------------8-------------7-------------------|
 PM. .    .    .   .   .    .



| /  slide up
| \  slide down
| h  hammer-on
| p  pull-off
| ~  vibrato
| +  harmonic
| x  dead note
|PM. palm mute
===============================================================================
Related for Day Of Justice tab