Guitaretab - guitar tabs
Song name
# A B C D E F G H I J K L M N O P Q R S T U V W X Y Z

All Shall Perish - We Hold These Truths tab

C#--12-8---8------------------------------------------8-13-|
G#------10--10---10---------------------------10----10-----|
E --------9---9----9----9-------------10----10----10-------|
b -------------10---10---10---------10----10----10---------|
F#--------------------12---12-----12----12-----------------|
B ---------------------------12/13-------------------------|
[ Tab from: http://www.guitaretab.com/a/all-shall-perish/79030.html ]
C#-12-8---8-----10-7---7-----8-5--5---7-4--4----|
G#-----10--10-------9---9-------6--6-----5--5---|
E -------9---9-------10--10-7----5--5-----4--4--|
b ------------10---------------------7--------6-|
F#----------------------------------------------|
B ----------------------------------------------|

This should be completely right.

Play in a continuous chain. The whole intro is played in 9 seconds so play fast. Enjoy.
Related for We Hold These Truths tab
Advertisement will be closed in 10 seconds