Guitaretab - guitar tabs
Song name
# A B C D E F G H I J K L M N O P Q R S T U V W X Y Z

All Shall Perish - Greyson tab

wow im in love with this song, so i had to try to tab it
but the solos and lead guitar are pretty hard to hear but i got the basic riff down.
please help with the solo and lead guitar!!.. anyone!

drop B sonn.

rhythm guitar 0:00 - 0:30
this gorgeous melody is basically played out through the entire song;
---------------------------------------|
---------------------------------------|
---------------------------------------|
------7--------7-----------------------|
----5---8~---5---8s-10-8-7-8-----------|
--0--------0---------------------------|

---------------------------------------|
---------------------------------------|
---------------------------------------|
------7--------7---------10------------|
----5---8~---5---8s-10-8----8----------|
--0--------0---------------------------|
[ Tab from: http://www.guitaretab.com/a/all-shall-perish/89515.html ]
---------------------------------------|
---------------------------------------|
---------------------------------------|
------7--------7-----------------------|
----8---8~---8---8s-10-8-7-8-----------|
--8--------8---------------------------|


---------------------------------------|
---------------------------------------|
----------------------------10---------|
------7--------7---------10------------|
----8---8~---8---8----12---------------|
--8--------8-------10------------------|

____________________________________________________________________________

the lead guitar was really hard to figure out so all i got was this so far haha.

lead guitar 0:00
---------------------------------------|
---------------------------------------|
--7~---------5s-10-9-12-10-9~-10-7~----|
---------------------------------------|
---------------------------------------|
---------------------------------------|

HELP WOULD BE VERY APPRECIATIVE!
ENJOY!
Related for Greyson tab