Song name
# A B C D E F G H I J K L M N O P Q R S T U V W X Y Z

All Shall Perish - Sever The Memory tab

-------------------------------------------------------------------------------
			     Sever the memory by All Shall Perish
-------------------------------------------------------------------------------
Tabbed by:Renzo Arrogante gi gamit ra nako ang account ni jec!
Email:Ask Jec!

Tuning:Drop b

|-----------------------------------------------------------------------|
|-----------------------------------------------------------------------|
|-----------------------------------------------------------------------|
|-----------------------------------------------------------------------|
|8----------7-----5----7---5-----8--------------------------------------|
|0----------0-----8----8---8-----8--------------------------------------|x4

|-----------------------------------------------------------|
|-----------------------------------------------------------|
|-----------------------------------------------------------|
|-----------------------------------------------------------|
|88888888888887777777777755558888777788888888888888---------|
|-----------------------------------------------------------|Palm mutingx2

|-------------------------------------------------------------------------|
|-------------------------------------------------------------------------|
|-------------------------------------------------------------------------|
|-77777777777775555555555555888855558888888888888-------------------------|
|-------------------------------------------------------------------------|
|-------------------------------------------------------------------------|

|-------------------------------------------------------------------------|
|-------------------------------------------------------------------------|
|-------------------------------------------------------------------------|
|-------------------------------------------------------------------------|
|----------------------------------------x3-------------------------------|
|000000--000000-----0--0--0-------0000------------------------------------|
  xxxxxx   xxxxx     x  x  x       xxxx
then...

|-------------------------------------------------------------------------|
|-------------------------------------------------------------------------|
|-------------------------------------------------------------------------|
|-------------------------------------------------------------------------|
|------------10101010101010101088888888887777777888888--------------------|
|-------------------------------------------------------------------------|

while the lead goes like...

|-------------------------------------------------------------------------|
|-------------------------------------------------------------------------|
|-------8888888887777777755555555777777-----------------------------------|
|-------------------------------------------------------------------------|
|-------------------------------------------------------------------------|
|-------------------------------------------------------------------------|


|-------------------------------------------------------------------------|
|-------------------------------------------------------------------------|
|-------------------------------------------------------------------------|
|-------------------------------------------------------------------------|
|0-0-0-0-0-0-0-0------------------0-0-------------------------------------|
|0-0-0-0-0-0-0-0------------------0-0-------------------------------------|
   xxxxxxxxxxxxxx                  xx

|---------------------------------------------------------------------------|
|---------------------------------------------------------------------------|
|---------------------------------------------------------------------------|
|---------------------------------------------------------------------------|
|5h0p---0-0-0---------------101010101010108888888777777778888888------------|
|5h0p---0-0-0-----0000000---------------------------------------------------|


|---------------------------------------------------------------------------|
|---------------------------------------------------------------------------|
|---------------------------------------------------------------------------|
|-----------------------------7----------8-7-----7--------------------------|
|--------------------7--8--10---------------10-8--10--8-7-------------------|
|000-000--000-000-------------000-000---------------------------------------|
  xxx xxx  xxx xxx    x  x  x    xxx xxx

|---------------------------------------------------------------------------|
|---------------------------------------------------------------------------|
|---------------------------------------------------------------------------|
|----------------------------7----------------------------------------------|
|-------------------7-8-10--------12121212121212121010101010101010888888----|
|000-000-000-000------------------------------------------------------------|
  xxx xxx xxx xxx    x x  x


|-------------------------------------------------------------------------|
|-------------------------------------------------------------------------|
|-------------------------------------------------------------------------|
|-------------------------------------------------------------------------|
|-------------------------------------------------------------------------|
|000-000------------------------------------------------------------------|
  xxx xxx

there are some riffs missing here so you figure that out by yourselves..

Keep Fucking supportin METAL \m/

| /  slide up
| \  slide down
| h  hammer-on
| p  pull-off
| ~  vibrato
| +  harmonic
| x  Mute note
===============================================================================
Tap to rate this tab
# A B C D E F G H I J K L M N O P Q R S T U V W X Y Z