Song name
# A B C D E F G H I J K L M N O P Q R S T U V W X Y Z

All Sons And Daughters - Rising Sun tab

Rising Sun by All Sons and Daughters
Standard Tuning(E,A,D,G,B,e)
Key-E

Intro:
e----------------------------------------------------------|
B----------------------------------------------------------|
G---9-13/16-13~~~13p11/9~~~/4~~~4h6/9-9/13~----------------|
D-------------------------------------------4p2h4/6~~~/2---|
A----------------------------------------------------------|
E----------------------------------------------------------|

Verses:
e----------------------------------------------------------|
B----------------------------------------------------------|
G--18-----14------------18-----14--------------------------|
D----------------14-------------------14-----16------------|
A----------------------------------------------------------|
E----------------------------------------------------------|

Chorus:
e----------------------------------------------------------------|
B----------------------------------------------------------------|
G------------------------------14----14----14----14--------------|
D------14----14----14----14--14----14----14----14------14----14--|
A----14----14----14----14--12----12----12----12------14----14----|
E--12----12----12----12----------------------------12----12------|
   E                       A                       E

e----------------------------------------------------------------|
B----------------------------------------------------------------|
G------16----16----18----18----14----14--------------------------|
D----16----16----18----18----14----14------14----14--------------|
A--14----14----16----16----12----12------14----14----------------|
E--------------------------------------12----12------------------|
   B           C#m         A           E

Bridge:
e-------------------------------------|
B-------------------------------------|
G--6---------9----6---------9---------|
D--6----7----9----6----7----9---------|
A--4----7----7----4----7----7---------|
E-------5--------------5--------------|
   C#m  A    E    C#m  A    E

e----------------------------------------------------|
B----------------------------------------------------|
G------18----18----18----18----14----14--------------|3x
D----18----18----18----18----14----14------14----14--|
A--16----16----16----16----12----12------14----14----|
E--------------------------------------12----12------|
   C#m                     A           E

e----------------------------------------------------|
B----------------------------------------------------|
G------16----16--------------------------------------|
D----16----16----------------------------------------|
A--14----14------------------------------------------|
E----------------------------------------------------|
   B

Instrumental:
e--------------------------------|
B--------------------------------|
G--13-/16/18-/16--13-/16/18-/16--|2x
D--------------------------------|
A--------------------------------|
E--------------------------------|

Ending:
e--------------------------------|
B--------------------------------|
G--13-/16/18-/16-----------------|2x
D--------------------------------|
A--------------------------------|
E--------------------------------|

e--------------------------------|
B--------------------------------|
G--6---------9----6---------9----|
D--6----7----9----6----7----9----|
A--4----7----7----4----7----7----|
E-------5--------------5---------|
   C#m  A    E    C#m  A    E
Tap to rate this tab
# A B C D E F G H I J K L M N O P Q R S T U V W X Y Z