Song name
# A B C D E F G H I J K L M N O P Q R S T U V W X Y Z

All That Remains - Chiron tab

Help us improve GuitareTab! Take a short survey!
All That Remains
Chiron
Overcome


All guitars tuned to D standard (Standard one full step down)


/ = Slide up
\ = Slide down
~ = Vibrato
b = Bend
r = Release bend
h = Hammer on
p = Pull off
. = Palm mute


Guitar 1 (Oli)
d|------------------------------------------------------------------|
a|-------------------------------------------------------12--15b16--|
f|-------------------------/15~-13b15r13p11-13~---13--15------------|
c|---/13~\--/13-15==b16r15------------------------------------------|
g|------------------------------------------------------------------|
D|------------------------------------------------------------------|

Guitar 2 (Mike)
d|------------------------------------------------------------------|
a|------------------------------------------------------------------|
f|------------------------------------------------------------------|
c|----2~--2---2---2---8~--------------8---6-------6---6---6---6-----|
g|----2~--2---2---2---8~--------------8---6-------6---6---6---6-----|
D|----0~--0---0---0---6~--------------6---4-------4---4---4---4-----|
          .   .   .                               .   .


----------------------------------------------------------------------


d|---------------------------|--------------------------------------|
a|---15~-/12-----------------|--Ending second time------------------|
f|-----------15--13--11------|--------------------------------------|
c|-----------------------15--|--13~---------------------------------|
g|---------------------------|--------------------------------------|
D|---------------------------|--------------------------------------|

d|------------------------------------------------------------------|
a|------------------------------------------------------------------|
f|------------------------------------------------------------------|
c|---8---10~--------------------------------------------------------|
g|---8---8~---------------------------------------------------------|
D|---6---6~---------------------------------------------------------|



HARMONY



Guitar 3 (Oli harmony)
d|------------------------------------------------------------------|
a|------------------------------------------------------------------|
f|-----------------------------------------------------6b7--6~------|
c|----------------------/8~----/6b8=r6p4-6~---6--8--9---------------|
g|---/6~---/6--8==10r8----------------------------------------------|
D|------------------------------------------------------------------|

Guitar 2
d|------------------------------------------------------------------|
a|------------------------------------------------------------------|
f|------------------------------------------------------------------|
c|---2---2---2---2---8-------------------6-------------------8------|
g|---2---2---2---2---8-------------------6-------------------8------|
D|---0---0---0---0---6-------------------4-------------------6------|


----------------------------------------------------------------------


d|------------------------------------------------------------------|
a|------------------------------------------------------------------|
f|------------------------------------------------------------------|
c|--9--8--6---------------------------------------------------------|
g|-----------9--8--6~-----------------------------------------------|
D|------------------------------------------------------------------|

d|------------------------------------------------------------------|
a|------------------------------------------------------------------|
f|------------------------------------------------------------------|
c|--10--10----------------------------------------------------------|
g|--8---8-----------------------------------------------------------|
D|--6---6-----------------------------------------------------------|
Related for Chiron tab