Song name
# A B C D E F G H I J K L M N O P Q R S T U V W X Y Z

All That Remains - A Song For The Hopeless tab

Tabbed by: insidethehorror
Email:metalmaniacal666@aol.com

Tuning:C# Standard

Guitar 1
e|-----2-------0-----------5--2---------------------------------------------|
B|----3-3-----3-3------3----3--3-5-3----------------------------------------|
G|---4---4---4---4----0-0-0--0--0-------------------------------------------|
D|--4-----4-4-----4--4---4--------------------------------------------------|
A|-2-------0--------2-------------------------------------------------------|
E|-----------------0--------------------------------------------------------|

Guitar 2 (solo)
e|------------------9-9h10--------14-------------14---------14--------------|
B|-----------7-9h10------------------17p15h17~------17p15h17--17p15h17------|
G|--6~---7-9----------------7~----------------------------------------------|
D|--------------------------------------------------------------------------|
A|--------------------------------------------------------------------------|
E|--------------------------------------------------------------------------|

e|--17-15p14h15---/22-------------------------------------------------------|
B|-------------15----22-19--------------------------------------------------|
G|-------------------------21~\---------------------------------------------|
D|--------------------------------------------------------------------------|
A|--------------------------------------------------------------------------|
E|--------------------------------------------------------------------------|

This is just the intro. pretty simple. ill tab the rest in a few weeks.
Tap to rate this tab
# A B C D E F G H I J K L M N O P Q R S T U V W X Y Z