Song name
# A B C D E F G H I J K L M N O P Q R S T U V W X Y Z

All That Remains - Regret Not tab

All That Remains - Regret not solo
Tuning - CGCFAD

"Most of it is right, but only that 2. row last part is a BIT different..
i didn't put the harmonics and all that stuff, just the tab."

Play this first row four times.
|----------------------------------------------------------------------------------------|
|----------------------------------------------------------------------------------------|
|----------------------------------------------------------------------------------------|  
|----------------------------------------------------------------------------------------|
|--14-14-14-12-12-12-15-14-12-15-14-12--10-10-10-9-9-9-12-12-12-9-9-9--------------------|
|----------------------------------------------------------------------------------------|

|----------------------------------------------------------------------------------------|
|-------------------------------------------------------------------------5--7--5--------|
|---------------------7--5--4--4--5--2--2--4--0--0--2---------------4--5-----------5-----|
|-----2--4--5--4--5------------------------------------4---2--4--5--------------------5--|
|--2-------------------------------------------------------------------------------------|
|----------------------------------------------------------------------------------------|

|----------------------------------------------------------------------------------------|
|----------------------------------------------------------------------------------------|
|----------------------------------------------------------------------------------------|
|--4--2--4--5--2--2-2-2--4--5--2---14-12-14-16-14-16-19-17-------------------------------|
|----------------------------------------------------------15-14-15-18-15-18-21-19-------|
|----------------------------------------------------------------------------------------|

|----------------------------------------------------------------------------------------|
|----------------------------------------------------------------------------------------|
|----------------------------------------------------------------------------------------|
|--14-12-14-16-14-16-19-17---------------------------------------------------------------|
|--------------------------15-14-15-18-15-18-21-19---------------------------------------|
|----------------------------------------------------------------------------------------|

Hey, if you're using EADGBE tuning: play everything 2 blocks higher(not sure
about, what the correct term is). 
Tap to rate this tab
# A B C D E F G H I J K L M N O P Q R S T U V W X Y Z