Song name
# A B C D E F G H I J K L M N O P Q R S T U V W X Y Z

All That Remains - Forever In Your Hands Acoustic tab

Forever In Your Hands-Acoustic
All That Remains
Tuning- C# F# B E G# C#
Gtr 1-panned left
Gtr 2-panned right

Verse (one guitar plays this and another plays same thing string up using open notes)
|-------------------------------------------------------------------------------|
|-----5---------5---------5----------5--------5--------5---------10--------7----|
|----5ó5-------5-5------5--5--------5--5-----5-5------5-5------10-10------7-7---|
|---7----7----7---7----7-----7-----7----7---7---7----7---7----12---12----9---9--|
|--7------7--7-----7--8--------8--8------8-5------5-5-----5--12-----12--9-----9-|
|-5---------5-------5------------5--------5--------5-------10---------7---------|
Then same chords but strumming not arpeggios

Pre-chorus  Gtr 2 stops, Gtr 1 plays this
|-------------------5-7-8-7-------|
|-------------5---5---------8~----|
|------5----5----5----------------|
|----7----7-----7-----------------|
|---7----8------------------------|
|-5-------------------------------|

Chorus  Gtr 1 first repeat holds out prechorus note and comes in on second chord. Below
second repeat.                Üfirst time starts here
|------------------------------------------------------------------------|
|----8--------8-------8--------8----8----8---8---8----8---8--8--8ó8------|
|---5-5------5-5-----5--5-----5-5----5----5---5---5----7---7--7ó7---7----|
|--7---7----7---7---7----7---7---7----7----7---7----7---7---7--7--7--7---|
|-7------7-7-----7-8------8-8-----8----8----8---8----8----------------8--|
|5--------5-------5--------5---------------------------------------------|

Chorus Gtr 2
|-0---000000-0---00000-0000000000000000000000000000000-|
|-1---111111-1---11111-0000000000000000000000000000000-|
|-2---222222-2---00000-7777777777777777444444444444444-|
|-3---222222-0---22222-5555555555555555222222222222222-|
|-0---000000-0---33333-0000000000000000000000000000000-|
|------------------------------------------------------|

|-0---000000-0---00000-00000000000000000000005555555555-|
|-1---111111-1---11111-00000000000000008888888888888888-|
|-2---222222-2---00000-77777777777777777777777777777777-|
|-3---222222-0---22222-55555555555555555555555555555555-|
|-0---000000-0---33333-00000000000000000000005555555555-|
|-------------------------------------------------------|

Transition Rythem
|---------------------|
|---------------------|
|---------------------|
|-7---10--9---12---55-|
|-7---10--9---12---55-|
|-5---8---7---10---33-|


Transition Lead
|---------------------------8-7--------8-7----------|
|---------5---5-8-10-8~5-5--------5-5-------10-8----|
|----5---5--5-----------5-5------5-5-5--------------|
|---7---7--7----------------------------------------|
|--7---8--------------------------------------------|
|-5-------------------------------------------------|


Solo (left guitar)
|---------------------------------------5-3~/8-7~/12-10~~~17~~13-13-15~--------------|
|-------------------------------------5-----------------------15-15-15~--------------|
|------------------------------------------------------------------------------------|
|-79~~5-7-9~7-5-7~5-4-5-4-4~-5-4-----------------------------------------------------|
|------------------------7-------3-5~------------------------------------------------|
|------------------------------------------------------------------------------------|

|-7-7--8~----------------8~8-7---10--12--10~~16-12----------------------------------|
|-8-8--8~----5ó5-6-5-6-8-8~8-7---10--12--10~~-----15-12---------------5-5-6-6/8-----|
|--------5-7-ó7----------------------------------------14-12-79-7~-5-7-7------------|
|-----------------------------------------------------------------------------------|
|-----------------------------------------------------------------------------------|
|-----------------------------------------------------------------------------------|

Post Solo Transition
|--------------7-8-7-------------5-------------------7--8-7-5~~10/12\10~12-10-8-7-5~~---|
|---------5---5-----8~~-----5-6-8-8-6-5----------5--5-----------------------------------|
|----5---5---5-----------5-7----------------5---5--5------------------------------------|
|---7---7---7------------------------------7---7--7-------------------------------------|
|--7---8----------------------------------7---8-----------------------------------------|
|-5--------------------------------------5----------------------------------------------|


Order:
Verse x2 arpeggios
Verse x1 chords
Prechorus
Chorus (Gtr 1 x2 .Gtr 2 x1)
Transition (x4 Gtr 1) (x2 Gtr 2)
Verse x1 arpeggios
Verse x1 chords
Prechorus
Chorus (Gtr 1 x2 . Gtr 2 x1)
Transition x4 (both play tranition rythem)
Solo (while Gtr 2 plays transition rythem)
Post Solo Transition (Gtr 1)      Gtr 2 plays transition lead x2
Chorus (Gtr 1 x2 . Gtr 2 x1)
Verse Chords x2

I donít know if all of this is right but itís close and since itís the first tab up for
song I had nothing to look off of and its my first tab. If u fix any sections let me
at timck@localnet.com
Tap to rate this tab
 
# A B C D E F G H I J K L M N O P Q R S T U V W X Y Z