Guitaretab - guitar tabs
Song name
# A B C D E F G H I J K L M N O P Q R S T U V W X Y Z

All That Remains - Tattered On My Sleeve tab

ok well i was just listening to the intro to the solo and sorta though it sounded like 
intro of not alone anyway hope it sounds goo its not the whole thing but im workin on it 
hard extremely weird anywho this is just the acoustic part

|----------------------------------------|
|-5555555-666-8-88-88888-555-6-66--------|
|-7777777-777-7-77-55555-555-5-55--------| run until end
|----------------------------------------|
|----------------------------------------|
|----------------------------------------|

and i noticed that the other guy had put this:

|0-1-3-3-0-1-|
|3-3-3-1-1-1-|
|2-2-2-0-0-0-|
|x-x-x-x-2-2-|
|x-x-x-x-x-x-|
|x-x-x-x-x-x-|
[ Tab from: http://www.guitaretab.com/a/all-that-remains/196264.html ]
Both sound the same i dont know just choose one you like and now this is the electric 
guitar 2 make sure it sounds clean and its always fun to bend a lil try it sounds pretty 
let sum of the notes ring

|-5(ring)-5----------8----8----------5-------|
|--6-5-----6-5-8-6-5--8-6--8-6-5-6-5--6-5----|
|--------------------------------------------|
|--------------------------------------------|   x2
|--------------------------------------------|
|--------------------------------------------|

this next part it sounds good with my amp course i had a preset so i have no idea whats 
it...anyway it might not sound good but it goes

|--------------------------------------|
|--------------------------------------|
|-----7-7-----9-9-----12-12-1212121212-|
|-----5-5-----7-7-----10-10-1212121212-|
|-----5-5-----7-7-----10-10-1212121212-|
|0-0-0---0-0-0---0-0-0-----------------|

thats all i got for now ill update later this is my first tab ever i did it all by ear 
i hope it helped sum
Related for Tattered On My Sleeve tab
Tattered On My Sleeve chords by All That Remains