Song name
# A B C D E F G H I J K L M N O P Q R S T U V W X Y Z

All That Remains - Not Alone tab

Hey its Trey. This is a pretty good solo tab.


SOLO
|--------------------------------------------------|
|-----------------------------------15-13-12h13p12~|
|16^-r-16-14--14~---------16^-r16-14---------------|
|-----------17---12`14`16`-------------------------|
|--------------------------------------------------|
|--------------------------------------------------|
	         pm pm pm
|---------------------------------------|
|--------------------------10h12 ----13/|
|-----------------9h12----------10h11---|
|-------10h12---------10h12-------------|
|10----------10h12----------------------|
|--12p10--------------------------------|

|-----------------------------------------------------------------------|
|\17p10h13-15p10h13-17p10h13-15p10h13-----------------------------------|
|------------------------------------17p9h12-16p9h12-17p9h12-16p9h12-17~|
|-----------------------------------------------------------------------|
|-----------------------------------------------------------------------|
|-----------------------------------------------------------------------|
   T        T        T        T       T       T       T       T       T~
|-------------------------------------12/|
|---------------------------13h15--------|
|-----------------12h14----------12h14---|
|-------12h14----------12h14-------------|
|12----------14h15-----------------------|
|--12h14---------------------------------|
  
|\15p8h12-17p8h12-15p8h12-17p8h12-----------------------------------|
|--------------------------------15p8h12-17p8h12-15p8h12-17p8h12-13~|
|-------------------------------------------------------------------|
|-------------------------------------------------------------------|
|-------------------------------------------------------------------|
|-------------------------------------------------------------------|
   T       T       T       T      T       T       T       T       T~
|-------------------------------------|
|-------------------------------12-13~|
|9-------------------9-12-12----------|
|-9-10----10-----12---------9-10------|
|-------12--10-12--12-----------------|
|-----12------------------------------|

|-----------------------------------------------|
|----------------------------------15^-15^-r-20~|
|12---------------------14--16------------------|
|--12-14-----14-----17--------------------------|
|-------14-15--14-15--14--14--14-15-------------|
|-----------------|
LEGEND
^-bend
r-release
h-hammer on
p-pull off
T-tap with picking hand
Tap to rate this tab
# A B C D E F G H I J K L M N O P Q R S T U V W X Y Z