Song name
# A B C D E F G H I J K L M N O P Q R S T U V W X Y Z

All That Remains - Forever In Your Hands tab

Forever In Your Hands
All That Remains
Tuning- C# F# B E G# C#
Tabbed by: lmpguitarist
Intro Lead
|---------------------------8-7--------8-7----------|
|---------5---5-8-10-8~5-5--------5-5-------10-8----|
|----5---5--5-----------5-5------5-5-5--------------|
|---7---7--7----------------------------------------|
|--7---8--------------------------------------------|
|-5-------------------------------------------------|

Intro Rhythm
|---------------------|
|---------------------|
|---------------------|
|-7---10--9---12---55-|
|-7---10--9---12---55-|
|-5---8---7---10---33-|

Intro lead pt. 2
|--------------7-8-7-------------5-------------------7--8-7-5~~10/12\10~12-10-8-7-5~~---|
|---------5---5-----8~~-----5-6-8-8-6-5----------5--5-----------------------------------|
|----5---5---5-----------5-7----------------5---5--5------------------------------------|
|---7---7---7------------------------------7---7--7-------------------------------------|
|--7---8----------------------------------7---8-----------------------------------------|
|-5--------------------------------------5----------------------------------------------|

Verse chord progression
|-----------------|
|-----------------|
|--ó--------------|
|-7--7--7--12-9---|
|-7--8--5--10-7---|
|-5--5--5--10-7---|

Verse rhythm (when itís just the bottom note of chord, its palm muted
|----------------|
|----------------|
|----------------|
|777------7--777-|
|777------7--777-|
|5555555555555555

Pre-chorus  (just lead guitar)
|-------------------5-7-8-7-------|
|-------------5---5---------8~----|
|------5----5----5----------------|
|----7----7-----7-----------------|
|---7----8------------------------|
|-5-------------------------------|

Chorus  Lead  (donít ring out)
|----------------------------------------------------------------------------|
|----8--------8-------8--------8----8----8---8---8---10--10--10--10ó-10------|
|---5-5------5-5-----5--5-----5-5----5----5---5---5----7---7---7ó--7----7----|
|--7---7----7---7---7----7---7---7----7----7---7----7---7---7---7---7----7---|
|-7------7-7-----7-8------8-8-----8----8----8---8----8--------------------8--|
|5--------5-------5--------5-------------------------------------------------|

Chorus Rhythm Guitar (I know it looks small but this whole thing is one whole chorus)
|-0---000000-0---00000-0000000000000000000000000000000-|
|-1---111111-1---11111-0000000000000000000000000000000-|
|-2---222222-2---00000-7777777777777777444444444444444-|
|-3---222222-0---22222-5555555555555555222222222222222-|
|-0---000000-0---33333-0000000000000000000000000000000-|
|------------------------------------------------------|

|-0---000000-0---00000-00000000000000000000005555555555-|
|-1---111111-1---11111-00000000000000008888888888888888-|
|-2---222222-2---00000-77777777777777777777777777777777-|
|-3---222222-0---22222-55555555555555555555555555555555-|
|-0---000000-0---33333-00000000000000000000005555555555-|
|-------------------------------------------------------|

Solo (this is the acoustic version...the electric is pretty much the same just with runs 
between everything. Figure it out for urself)
|---------------------------------------5-3~/8-7~/12-10~~~17~~13-13-15~--------------|
|-------------------------------------5-----------------------15-15-15~--------------|
|------------------------------------------------------------------------------------|
|-79~~5-7-9~7-5-7~5-4-5-4-4~-5-4-----------------------------------------------------|
|------------------------7-------3-5~------------------------------------------------|
|------------------------------------------------------------------------------------|

|-7-7--8~----------------8~8-7---10--12--10~~16-12----------------------------------|
|-8-8--8~----5ó5-6-5-6-8-8~8-7---10--12--10~~-----15-12---------------5-5-6-6/8-----|
|--------5-7-ó7----------------------------------------14-12-79-7~-5-7-7------------|
|-----------------------------------------------------------------------------------|
|-----------------------------------------------------------------------------------|
|-----------------------------------------------------------------------------------|

Order:
Intro rhythm w/ intro lead pt. 1
Intro rhythm w/ intro lead pt. 2
Verse
Prechorus
Chorus
Intro rhythm w/ intro lead pt. 1
Verse
Prechorus
Chorus
Intro rhythm
Solo w/ intro rhythm as backing
Intro rhythm w/ intro lead pt. 2
Chorus
Verse
DONE
Tap to rate this tab
 
# A B C D E F G H I J K L M N O P Q R S T U V W X Y Z