Song name
# A B C D E F G H I J K L M N O P Q R S T U V W X Y Z

All That Remains - Hold On tab

All that Remains!
Tabbed by: Mike Gillis (mike3oo)
Tuning: DGCFAD

(Intro 0:00-0:15)
D:--------------------------------------------------------------------------:
A:--------------------------------------------------------------------------:
F:--------------------------------------------------------------------------:
C:-8------10----11---6--8-9-8-----------------------4-6---------------------:
G:-6------8-----9----4--8-9-8-----------------------2-4---------------------:
D:---0000----00----00----------0000-5-6-7-0000-3-4-6------------------------:


D:--------------------------------------------------------------------------:
A:--------------------------------------------------------------------------:
F:--------------------------------------------------------------------------:
C:-8------10----11---6--8-9-8-----------------------4-3---------------------:
G:-6------8-----9----4--8-9-8-----------------------2-1---------------------:
D:---0000----00----00----------0000-5-6-7-0000-3-4-6------------------------:


D:--------------------------------------------------------------------------:
A:--------------------------------------------------------------------------:
F:--------------------------------------------------------------------------:
C:-4------6-----4-----2-4---------------------------------------------------:
G:-2------4-----2-----0-2-5-2--8SLIDE--->>>>>>>>>>>>------------------------:
D:---0000----00----00-----3-0--6SLIDE--->>>>>>>>>>>>------------------------:


(0:16-0:30)
D:--------------------------------------------------------------------------:
A:--------------------------------------------------------------------------:
F:--------------------------------------------------------------------------:
C:--------------------6-8--------------------4-6-8--------------------------:
G:--------------8-----4-6--------------8-----2-4-6--------------------------:
D:-000-0-0-0-00-6-000-----000-0-0-0-00-6-000--------------------------------:


D:--------------------------------------------------------------------------:
A:--------------------------------------------------------------------------:
F:--------------------------------------------------------------------------:
C:--------------------6-8--------------------4-6----------------------------:
G:--------------8-----4-6--------------8-----2-4----------------------------:
D:-000-0-0-0-00-6-000-----000-0-0-0-00-6-000--------------------------------:


(0:31-0:45)
D:--------------------------------------------------------------------------:
A:--------------------------------------------------------------------------:
F:--------------------------------------------------------------------------:
C:-4------6-----4-----6-8-9-8-----------------------------------------------:
G:-2------4-----2-----4-6-7-6-----------------------------------------------:
D:---0000----00----00---------00000000--------------------------------------:


D:--------------------------------------------------------------------------:
A:--------------------------------------------------------------------------:
F:--------------------------------------------------------------------------:
C:-4------6-----4-----6-8-9-8------6----------------------------------------:
G:-2------4-----2-----4-6-7-6------4----------------------------------------:
D:---0000----00----00---------0000------------------------------------------:


D:--------------------------------------------------------------------------:
A:--------------------------------------------------------------------------:
F:--------------------------------------------------------------------------:
C:-4------6-----4-----6-8-9-8-----------------------------------------------:
G:-2------4-----2-----4-6-7-6-----------------------------------------------:
D:---0000----00----00---------00000000--------------------------------------:


D:--------------------------------------------------------------------------:
A:--------------------------------------------------------------------------:
F:--------------------------------------------------------------------------:
C:-4------6-----4-----6-8-9-8-8-6-------------------------------------------:
G:-2------4-----2-----4-6-7-6-6-4-------------------------------------------:
D:---0000----00----00-------------------------------------------------------:


(0:46-1:00)
D:--------------------------------------------------------------------------:
A:--------------------------------------------------------------------------:
F:--------------------------------------------------------------------------:
C:-8-6---6---4----9-8---8---4----8-6---6---3----6-4---3--1-0-1--------------:
G:--------------------------------------------------------------------------:
D:-----0---0---00-----0---0---00-----0---0---00-----0-----------------------:


D:--------------------------------------------------------------------------:
A:--------------------------------------------------------------------------:
F:-------------------------------6-6---8------------------------------------:
C:-8-6---6---4----9-8---8---4----6-6---8------------------------------------:
G:-------------------------------4-4---6------------------------------------:
D:-----0---0---00-----0---0---00-----6--------------------------------------:


(1:01-1:16)
D:--------------------------------------------------------------------------:
A:--------------------------------------------------------------------------:
F:--------------------------------------------------------------------------:
C:-----------------------6-8--------------------4-6-8-----------------------:
G:-8--------------8------4-6-------------8------2-4-6-----------------------:
D:-6--000-000-00--6--000-----000-000-00--6--000-----------------------------:


D:----------------------------------------------------------------------------:
A:----------------------------------------------------------------------------:
F:----------------------------------------------------------------------------:
C:--------------------6-8--------------------4-6------------------------------:
G:-------------8------4-6-------------8------2-4------------------------------:
D:-000-000-00--6--000-----000-000-00--6--000----------------------------------:


(1:17-1:46)
D:--------------------------------------------------------------------------:
A:--------------------------------------------------------------------------:
F:--------------------------------------------------------------------------:
C:-8-6---6---4----9-8---8---4----8-6---6---3----6-4---3--1-0-1--------------:
G:--------------------------------------------------------------------------:
D:-----0---0---00-----0---0---00-----0---0---00-----0-----------------------:


D:--------------------------------------------------------------------------:
A:--------------------------------------------------------------------------:
F:-------------------------------6-6---8-6-8-6------------------------------:
C:-8-6---6---4----9-8---8---4----6-6---8-6-8-6------------------------------:
G:-------------------------------4-4---6-4-6-4------------------------------:
D:-----0---0---00-----0---0---00-----6--------------------------------------:


D:--------------------------------------------------------------------------:
A:--------------------------------------------------------------------------:
F:--------------------------------------------------------------------------:
C:-8-6---6---4----9-8---8---4----8-6---6---3----6-4---3--1-0-1--------------:
G:--------------------------------------------------------------------------:
D:-----0---0---00-----0---0---00-----0---0---00-----0-----------------------:


D:--------------------------------------------------------------------------:
A:--------------------------------------------------------------------------:
F:-------------------------------6-6---8------------------------------------:
C:-8-6---6---4----9-8---8---4----6-6---8------------------------------------:
G:-------------------------------4-4---6------------------------------------:
D:-----0---0---00-----0---0---00-----6--------------------------------------:

(1:47-1:56)
D:--------------------------------------------------------------------------:
A:--------------------------------------------------------------------------:
F:--------------------------------------------------------------------------:
C:-8-6-4-6-3----------------------------------2-3-4-------------------------:
G:-6-4-2-4-1--------2----2-1--2----4-1--2-3-4-0-1-2-------------------------:
D:-----------6-4-6--0-00------0-00------0-1-2-------------------------------:


D:--------------------------------------------------------------------------:
A:--------------------------------------------------------------------------:
F:--------------------------------------------------------------------------:
C:--------------------------------------------------------------------------:
G:-2----2-1--2----4-1-------------------------------------------------------:
D:-0-00------0-00-----------------------------------------------------------:


I'm working on the solo. The solo is hard to pick out so I'll post it when I've got it.

ROCK ON!!!
Tap to rate this tab
 
# A B C D E F G H I J K L M N O P Q R S T U V W X Y Z