All That Remains - The Waiting One tab

Song:  The Waiting One
Group: All That Remains
Album: For We Are Many
By: Hagop Mouradian (hmouradian@yahoo.com)
Tabbed on: October 19 2010

Drop D, and down a half step: Db Ab Db Gb Bb eb (low to high)

Intro:

The chords are played many times, listen to the song for the right timing.

eb|--1-1-1-1-1--0-0-0-0-0-------------0-0-1-1-1-0--|
Bb|--3-3-3-3-3--1-1-1-1-1--3-3-3-3-3--1-1-1-1-1-1--|
Gb|--2-2-2-2-2--0-0-0-0-0--3-3-3-3-3--0-0-0-0-0-0--|
Db|--0-0-0-0-0--2-2-2-2-2--3-3-3-3-3--2-2-2-2-2-2--|
Ab|-------------3-3-3-3-3--1-1-1-1-1--3-3-3-3-3-3--|
Db|------------------------------------------------|

eb|--1-1-1-1-1--0-0-0-0-0-------------0-0-0-1-1-3--|
Bb|--3-3-3-3-3--1-1-1-1-1--3-3-3-3-3--1-1-1-1-1-1--|
Gb|--2-2-2-2-2--0-0-0-0-0--3-3-3-3-3--0-0-0-0-0-0--|
Db|--0-0-0-0-0--2-2-2-2-2--3-3-3-3-3--2-2-2-2-2-2--|
Ab|-------------3-3-3-3-3--1-1-1-1-1--3-3-3-3-3-3--|
Db|------------------------------------------------|

  I'm the waiting one it seems

First Verse:

eb|--1-1-1-1-1--0-0-0-0-0-------------0-0-1-1-1-0--|
Bb|--3-3-3-3-3--1-1-1-1-1--3-3-3-3-3--1-1-1-1-1-1--|
Gb|--2-2-2-2-2--0-0-0-0-0--3-3-3-3-3--0-0-0-0-0-0--|
Db|--0-0-0-0-0--2-2-2-2-2--3-3-3-3-3--2-2-2-2-2-2--|
Ab|-------------3-3-3-3-3--1-1-1-1-1--3-3-3-3-3-3--|
Db|------------------------------------------------|

eb|--1-1-1-1-1--0-0-0-0-0-------------0-0-0-1-1-3--|
Bb|--3-3-3-3-3--1-1-1-1-1--3-3-3-3-3--1-1-1-1-1-1--|
Gb|--2-2-2-2-2--0-0-0-0-0--3-3-3-3-3--0-0-0-0-0-0--|
Db|--0-0-0-0-0--2-2-2-2-2--3-3-3-3-3--2-2-2-2-2-2--|
Ab|-------------3-3-3-3-3--1-1-1-1-1--3-3-3-3-3-3--|
Db|------------------------------------------------|

  I am the waiting one it seems
  Days grow somber quickly
  Now how the quiet is release
  And I feel so lonely

Pre-Chorus:

The open Db note is played repeatedly, to save space I only put 4 each time.

eb|-------------------------------------------|
Bb|-------------------------------------------|
Gb|--7---------5---------3---------5----------|
Db|--7---------5---------3---------5----------|
Ab|--5---------3---------1---------3----------|
Db|----0-0-0-0---0-0-0-0---0-0-0-0---0-0-0-0--|

  How did you think I would feel
  Throw me aside again
  How did you think I would feel
  Won't let you hurt me again

Chorus:

eb|-----------------0-3-1-0-1----------|
Bb|------------------------------------|
Gb|--3--7--5------3-----------7--5-----|
Db|--3--7--5--5---3-----------7--5--5--|
Ab|--1--5--3--5---1-----------5--3--5--|
Db|-----------5---------------------5--|

  I'm nothing to you, I can see
  Just walk away from me
  I'm torn up but I can't believe
  You sat and watched me bleed

2nd Verse:

eb|--1-1-1-1-1--1-1-1-1-1-------------0-0-0-0-0-0--|
Bb|--3-3-3-3-3--3-3-3-3-3--3-3-3-3-3--1-1-1-1-1-1--|
Gb|--2-2-2-2-2--2-2-2-2-2--3-3-3-3-3--0-0-0-0-0-0--|
Db|--0-0-0-0-0--0-0-0-0-0--3-3-3-3-3--2-2-2-2-2-2--|
Ab|------------------------1-1-1-1-1--3-3-3-3-3-3--|
Db|------------------------------------------------|

  She knows the waiting one in me
  That I needed to hold you

eb|--1-1-1-1-0--1-1-1-3-1-------------0-0-0-1-1-3--|
Bb|--3-3-3-3-3--3-3-3-3-3--3-3-3-3-3--1-1-1-1-1-1--|
Gb|--2-2-2-2-2--2-2-2-2-2--3-3-3-3-3--0-0-0-0-0-0--|
Db|--0-0-0-0-0--0-0-0-0-0--3-3-3-3-3--2-2-2-2-2-2--|
Ab|------------------------1-1-1-1-1--3-3-3-3-3-3--|
Db|------------------------------------------------|

  Still I can smell her, hear her breathe
  Feel her body beside me

eb|----------------|
Bb|----------------|
Gb|--7--9--10--12--|
Db|--7--9--10--12--|
Ab|--5--7--8---10--|
Db|----------------|

  How long I've waited, waited for you
  To come back and hold me
  What should I, what should I
  What should I do
  When I feel so lonely

Pre-Chorus:

eb|-------------------------------------------|
Bb|-------------------------------------------|
Gb|--7---------5---------3---------5----------|
Db|--7---------5---------3---------5----------|
Ab|--5---------3---------1---------3----------|
Db|----0-0-0-0---0-0-0-0---0-0-0-0---0-0-0-0--|

  How could you do this to me
  Betrayed by my closest friend
  How could you do this to me
  Won't let you hurt me again

Chorus:

eb|-----------------0-3-1-0-1----------|
Bb|------------------------------------|
Gb|--3--7--5------3-----------7--5-----|
Db|--3--7--5--5---3-----------7--5--5--|
Ab|--1--5--3--5---1-----------5--3--5--|
Db|-----------5---------------------5--|

  I'm nothing to you, I can see
  Just walk away from me
  I'm torn up but I can't believe
  You sat and watched me bleed

Verse:

eb|----------------|
Bb|----------------|
Gb|--7--9--10--12--|
Db|--7--9--10--12--|
Ab|--5--7--8---10--|
Db|----------------|

  What should I, what should I do
  Well how long I have waited
  What can I, what can I do
  When I feel so lonely

Solo:

eb|----------------------------------------------------------------------|
Bb|----------------------------------------------------------------------|
Gb|--------------------------------------------------------7-5---------5-|
Db|-8-7-5-7--8-7-5-7--8-7-5-7-5-3-5--3-5-7--8-7-5-7--8-7-5-----8-7-7h8---|
Ab|----------------------------------------------------------------------|
Db|----------------------------------------------------------------------|

eb|------------------------------------------------------10-8----------8-|
Bb|---------------------11-10-8-------11-10-8-10-11-10-8------11-10h11---|
Gb|-12-10-9-10--12-10-9---------10-12------------------------------------|
Db|----------------------------------------------------------------------|
Ab|----------------------------------------------------------------------|
Db|----------------------------------------------------------------------|

Pre-Chorus:

eb|--1-1-1-1-1--3-3-3-3-3-------------0-0-0-0-0-0--|
Bb|--3-3-3-3-3--3-3-3-3-3--3-3-3-3-3--1-1-1-1-1-1--|
Gb|--2-2-2-2-2--0-0-0-0-0--3-3-3-3-3--0-0-0-0-0-0--|
Db|--0-0-0-0-0--2-2-2-2-2--3-3-3-3-3--2-2-2-2-2-2--|
Ab|-------------3-3-3-3-3--1-1-1-1-1--3-3-3-3-3-3--|
Db|------------------------------------------------|

  How did you think I would feel
  Threw me aside again
  How did you think I would feel
  Won't let you hurt me again

Chorus:

eb|-----------------0-3-1-0-1----------|
Bb|------------------------------------|
Gb|--3--7--5------3-----------7--5-----|
Db|--3--7--5--5---3-----------7--5--5--|
Ab|--1--5--3--5---1-----------5--3--5--|
Db|-----------5---------------------5--|

  I'm nothing to you, I can see
  Just walk away from me
  I'm torn up but I can't believe
  You sat and watched me bleed

eb|-------------------------------------------|
Bb|-------------------------------------------|
Gb|--7---------5---------3---------5----------|
Db|--7---------5---------3---------5----------|
Ab|--5---------3---------1---------3----------|
Db|----0-0-0-0---0-0-0-0---0-0-0-0---0-0-0-0--|

  How could you do this to me
  Betrayed by my closest friend
  My closest friend
  How could you do this to me
  I won't let you hurt me again

Outro:

eb|--1-1-1-1-1--1-1-1-1-1-------------0-0-0-0-0-0--|
Bb|--3-3-3-3-3--3-3-3-3-3--3-3-3-3-3--1-1-1-1-1-1--|
Gb|--2-2-2-2-2--2-2-2-2-2--3-3-3-3-3--0-0-0-0-0-0--|
Db|--0-0-0-0-0--0-0-0-0-0--3-3-3-3-3--2-2-2-2-2-2--|
Ab|------------------------1-1-1-1-1--3-3-3-3-3-3--|
Db|------------------------------------------------|

eb|--1-1-1-1-0--1-1-1-1-0-------------0-0-1-1-0-0--|
Bb|--3-3-3-3-3--3-3-3-3-3--3-3-3-3-3--1-1-1-1-1-3--|
Gb|--2-2-2-2-2--2-2-2-2-2--3-3-3-3-3--0-0-0-0-0-0--|
Db|--0-0-0-0-0--0-0-0-0-0--3-3-3-3-3--2-2-2-2-2-2--|
Ab|------------------------1-1-1-1-1--3-3-3-3-3-3--|
Db|------------------------------------------------|

  I am the waiting one it seems

eb|------------3--|
Bb|----------1-3--|
Gb|---------------|
Db|------2-3------|
Ab|----0----------|
Db|--0------------|
Tap to rate this tab
 
# A B C D E F G H I J K L M N O P Q R S T U V W X Y Z