Song name
# A B C D E F G H I J K L M N O P Q R S T U V W X Y Z

All That Remains - Keepers Of Fellow Man tab

All that Remains!
Tabbed by: Mike Gillis (mike3oo)
Tuning: C# F# B E G# C#

(Intro 0:00-0:21)
C#:-------------------------------------------------------------------------:
G#:-------------------------------------------------------------------------:
E:------9--12--9-16-14-9---7-9--7-16-14-9-12-9------------------------------:
B:--7-----------------------------------------------------------------------:
F#:-7-----------------------------------------------------------------------:
C#:-5-----------------------------------------------------------------------:


C#:-------------------------------------------------------------------------:
G#:-------------------------------------------------------------------------:
E:--------------------------------------------------------------------------:
B:--------------------------------------------------------------------------:
F#:-------------------------------------------------------------------------:
C#:-555-555-555-5-555-5-5-555----------555-555-555-5-5555555-5--------------:


C#:-------------------------------------------------------------------------:
G#:-------------------------------------------------------------------------:
E:--------------------------------------------------------------------------:
B:--------------------------------------------------------------------------:
F#:-------------------------------------------------------------------------:
C#:-111-111-111-1-111-1-1-111----------111-111-111-1-1111111-1--------------:


(0:21-0:32)
C#:-----------------------^---^---^---^-------------------------------------:
G#:-----------------------^---^---^---^-------------------------------------:
E:--------9--7--10--9-----7---5---3---5-------------------------------------:
B:-----9--9--7--10--9---Squeal and bend on----------------------------------:
F#:-7--9--7--5--8---7----these four notes--------------Slide----------------:
C#:-5--7------------------------------------------12>>>>>>>>>>>>>----------:


(0:33-1:04)
C#:-------------------------------------------------------------------------:
G#:------------------------------------8---6---5-------8---6---5------------:
E:------17-16-14-9-7-9--10-9-7-4-5-2---------------2------------------------:
B:-------------------------------------These seven notes are hard-----------:
F#:-7----------------------------------to hear but they're there------------:
C#:-5-----------------------------------------------------------------------:


(1:05-1:15)
C#:-------------------------------------------------------------------------:
G#:-------------------------------------------------------------------------:
E:--------------------------------------------------------------------------:
B:--------------------------------------------------------------------------:
F#:-------------------------------------------------------------------------:
C#:-555-555-555-5-555-5-5-555----------555-555-555-5-5555555-5--------------:


C#:-------------------------------------------------------------------------:
G#:-------------------------------------------------------------------------:
E:--------------------------------------------------------------------------:
B:--------------------------------------------------------------------------:
F#:-------------------------------------------------------------------------:
C#:-111-111-111-1-111-1-1-111----------111-111-111-1-1111111-1--------------:


(1:16-1:26)
C#:-----------------------^---^---^---^-------------------------------------:
G#:-----------------------^---^---^---^-------------------------------------:
E:--------9--7--10--9-----7---5---3---5-------------------------------------:
B:-----9--9--7--10--9---Squeal and bend on----------------------------------:
F#:-7--9--7--5--8---7----these four notes--------------Slide----------------:
C#:-5--7------------------------------------------12>>>>>>>>>>>>>----------:


(1:27-2:10)
C#:-------------------------------------------------------------------------:
G#:-------------------------------------------------------------------------:
E:------17-16-14-9-7-9--10-9-7-4-5-2----17-16-14-9-7-9--10-9-7-4-5-2--------:
B:--------------------------------------------------------------------------:
F#:-7-----------------------------------------------------------------------:
C#:-5-----------------------------------------------------------------------:


C#:-----------------------|P|-----------------------------------------------:
G#:------------8---6---5--|A|--------8---6---5------------------------------:
E:------------------------|U|---2-------------------------------------------:
B:------------------------|S|-----------------------------------------------:
F#:-----------------------|E|-----------------------------------------------:
C#:--These seven notes are hard to hear but they're there-------------------:


I'm working on the solo. The solo is hard to pick out so I'll post it when I've got it.

ROCK ON!!!

Tap to rate this tab
 
# A B C D E F G H I J K L M N O P Q R S T U V W X Y Z