Song name
# A B C D E F G H I J K L M N O P Q R S T U V W X Y Z

All That Remains - Stand Up tab

-------------------------------------------------------------------------------
                             Stand Up - All That Remains
-------------------------------------------------------------------------------
Tabbed by:maglehtim
E-mail: maglehtim@gmail.com
Tuning: The tuning between drop D and drop C, don't know what it's called.

It's all done by ear, it's probably not totally correct so if you have any 
corrections please send me an email or post in the comments.




I'm just putting the chords here, the patterns is easy just listen to the
song while playing.

GTR1
e|---------------------------------------------------------------------------|
B|---------------------------------------------------------------------------|
G|---------------------------------------------------------------------------|
D|--0---8---7----------------------------------------------------------------|
A|--0---8---7----------------------------------------------------------------|
E|--0---8---7----------------------------------------------------------------|

GTR2 It's some hammer-ons on the G string, listen for the pattern of it.
e|---------------------------------------------------------------------------|
B|---------------------------------------------------------------------------|
G|--7---5---3---5------------------------------------------------------------|
D|--5---3---1---3------------------------------------------------------------|
A|--5---3---1---3------------------------------------------------------------|
E|---------------------------------------------------------------------------|

Verse
e|---------------------------------------------------------------------------|
B|---------------------------------------------------------------------------|
G|---------------------------------------------------------------------------|
D|--------7---8---7-------10---8---7-------7---8---7-------------------------|
A|--0--------------------------------0---------------------10---7---8--------|
E|--0-0-0---0---0---0-0-0----0---0---0-0-0---0---0---0-0-0----0---0----------|
PM    . .   .   .   . . .    .   .     . .   .   .   . . .    .   .

Continued
e|---------------------------------------------------------------------------|
B|---------------------------------------------------------------------------|
G|---------------------------------------------------------------------------|
D|---------------------------------------------------------------------------|
A|--8-----8---10---8-------10---8---7-7-----7---8---7-------7---8---10-------|
E|--8-8-8---8----8---8-8-8----8---8---7-7-7---7---7---7-7-7---7---7----------|
PM    . .   .    .   . . .    .    .    . .   .   .   . . .   .   .
     
Chorus the same as intro part
e|---------------------------------------------------------------------------|
B|---------------------------------------------------------------------------|
G|---------------------------------------------------------------------------|
D|--0---8---7----------------------------------------------------------------|
A|--0---8---7----------------------------------------------------------------|
E|--0---8---7----------------------------------------------------------------|

GTR2
e|---------------------------------------------------------------------------|
B|---------------------------------------------------------------------------|
G|--7---5---3---5------------------------------------------------------------|
D|--5---3---1---3------------------------------------------------------------|
A|--5---3---1---3------------------------------------------------------------|
E|---------------------------------------------------------------------------|



************************************

| /   slide up
| \   slide down
| h   hammer-on
| p   pull-off
| ~   vibrato
| +   harmonic
| x   Mute note
| b   Bend
| pb  Pre-bend
| br  Bend release
| pbr Pre-bend release
| brb Bend release bend

************************************
Tap to rate this tab
# A B C D E F G H I J K L M N O P Q R S T U V W X Y Z