Song name
# A B C D E F G H I J K L M N O P Q R S T U V W X Y Z

All That Remains - What If I Was Nothing tab

Drop C#

Intro:
C#||-------2--------2--------|--2--------0--------------|
G#||----------5--------5-----|-----5--------5-----5-----|
E ||-------------4--------4--|--------4--------4-----4--|
B ||-------------------------|--------------------------|
F#||-------------------------|--------------------------|
C#||--0----------------------|--------------------------|

--3----------3--------2--|--L----------------|--------------0-----------|
--3-------3-----3-----3--|--L----------------|-----------0-----0--------|
--0----0-----------0--2--|--L----------------|--------5-----------5-----|
--0-------------------0--|--L----------------|-----7-----------------7--|
--2-------------------0--|--L----------------|--0-----------------------|
--3----------------------|-------------------|--------------------------|

--------------0-----------|--------------0-----------|
-----------0-----0--------|-----------3-----3--------|
--------5-----------5-----|--------0-----------0-----|
-----7-----------------7--|-----2-----------------2--|
--0-----------------------|--3-----------------------|
--------------------------|--------------------------|

--------------0-----------|
-----------5-----5--------|
--------0-----------0-----|
-----4-----------------4--| (x3)
--5-----------------------|
--------------------------|

Verse:
D#|--------------------------|--------------------------|
A#|--------------------------|--------------------------|
F#|--3-----------3--------3--|--------3-----3--3--3--3--|
C#|--3-----------3--------3--|--------3-----3--3--3--3--|
G#|--1--1--1--1--1--1--1--1--|--1--1--1--1--1--1--1--1--|
C#|--------------------------|--------------------------|


--------------------------|--------------------------|
--------------------------|--------------------------|
--------------------------|--------------------------|
--5-----------5--------5--|--------5-----5--5--5--5--|
--5-----------5--------5--|--------5-----5--5--5--5--|
--5--5--5--5--5--5--5--5--|--5--5--5--5--5--5--5--5--|


--------------------------|--------------------------|
--------------------------|--------------------------|
--3-----------3--------3--|--------3-----3--3--3--3--|
--3-----------3--------3--|--------3-----3--3--3--3--|
--1--1--1--1--1--1--1--1--|--1--1--1--1--1--1--1--1--|
--------------------------|--------------------------|


--------------------------|-------------------|-------------------|
--------------------------|-------------------|-------------------|
--5-----------5--------5--|-------------------|-------------------|
--5-----------5--------5--|-------------------|---8---------------|
--3--3--3--3--3--3--3--3--|-------------------|---8---------------|
--------------------------|-------------------|---8---------------|

Chorus :

D#|-------------------|-------------------|-------------------|
A#|-------------------|-------------------|-------------------|
F#|-------------------|-------------------|-------------------|
C#|--8----------------|--10---------------|--0----------------|
G#|--8----------------|--10---------------|--0----------------|
C#|--8----------------|--10---------------|--0----------------|

|-------------------|
|-------------------|
|-------------------|
|--3----------------|(x3)
|--3----------------|
|--3----------------|

|-------------------|--------------------------|
|-------------------|--------------------------|
|-------------------|--------------------------|
|--10---------------|--10----------------0--8--|
|--10---------------|--10----------------0--8--|
|--10---------------|--10----------------0--8--|

Verse 2:

C#||-------2--------2--------|--2--------0--------------|
G#||----------5--------5-----|-----5--------5-----5-----|
E ||-------------4--------4--|--------4--------4-----4--|
B ||-------------------------|--------------------------|
F#||-------------------------|--------------------------|
C#||--0----------------------|--------------------------|

--3----------3--------2--|--L----------------|--------------0-----------|
--3-------3-----3-----3--|--L----------------|-----------0-----0--------|
--0----0-----------0--2--|--L----------------|--------5-----------5-----|
--0-------------------0--|--L----------------|-----7-----------------7--|
--2-------------------0--|--L----------------|--0-----------------------|
--3----------------------|-------------------|--------------------------|

--------------0-----------|--------------0-----------|
-----------0-----0--------|-----------3-----3--------|
--------5-----------5-----|--------0-----------0-----|
-----7-----------------7--|-----2-----------------2--|
--0-----------------------|--3-----------------------|
--------------------------|--------------------------|

--------------0-----------|
-----------5-----5--------|
--------0-----------0-----|
-----4-----------------4--| (x2)
--5-----------------------|
--------------------------|


|--------------------------|--------------------------|
|--------------------------|--------------------------|
|--3-----------3--------3--|--------3-----3--3--3--3--|
|--3-----------3--------3--|--------3-----3--3--3--3--|
|--1--1--1--1--1--1--1--1--|--1--1--1--1--1--1--1--1--|
|--------------------------|--------------------------|


--------------------------|--------------------------|
--------------------------|--------------------------|
--------------------------|--------------------------|
--5-----------5--------5--|--------5-----5--5--5--5--|
--5-----------5--------5--|--------5-----5--5--5--5--|
--5--5--5--5--5--5--5--5--|--5--5--5--5--5--5--5--5--|


--------------------------|--------------------------|
--------------------------|--------------------------|
--3-----------3--------3--|--------3-----3--3--3--3--|
--3-----------3--------3--|--------3-----3--3--3--3--|
--1--1--1--1--1--1--1--1--|--1--1--1--1--1--1--1--1--|
--------------------------|--------------------------|


--------------------------|-------------------|-------------------|
--------------------------|-------------------|-------------------|
--5-----------5--------5--|-------------------|-------------------|
--5-----------5--------5--|-------------------|---8---------------|
--3--3--3--3--3--3--3--3--|-------------------|---8---------------|
--------------------------|-------------------|---8---------------|

Return to Chorus

Solo:

|-----------1--------|
|--------------------|
|--------------------|
|--------------------|
|--------------------|
|--------------------|

--0-----------------|-------------------------|-----------------------|
-----------1--------|-------------------------|-----------------------|
--------------------|-------------------------|-----------------------|
--------------------|-------------------------|-----------------5--6--|
--------------------|--<>5~--------L\---------|-----------5--8--------|
--------------------|-------------------------|-----------------------|

------------------------|------------------------|----------------------|
------------------------|------------------------|----------------------|
------------------------|------------------------|----------------------|
--7----L--/10--7--------|--L--------10----L--8-7-|--8--------L----7--5--|
------------------------|------------------------|----------------------|
------------------------|------------------------|----------------------|

-----------------------|--------------------------------|
-----------------------|--------------------------------|
-----------------------|--------------------------------|
--L--------L-----------|-----10-------------------------|
--------------8--7--8--|--L------8--7--8S--10-----------|
-----------------------|-----------------------10b--10--|

-------------------------|-----------8-------------|------------------------|
------------------6--8S--|--10---------------10----|-----------------6--8S--|
------------5--7---------|-------------------------|-----------5--7---------|
-------------------------|-------------------------|------------------------|
-------------------------|-------------------------|------------------------|
-------------------------|-------------------------|------------------------|

-----------8-------------|-----------------8g10--8--|
--9b---------------9b----|--9b----------------------|
-------------------------|--------------------------|
-------------------------|--------------------------|
-------------------------|--------------------------|
-------------------------|--------------------------|

|-----------------6g8--6--|
|--11---------------------|
|-------------------------|
|-------------------------|
|-------------------------|
|-------------------------|

--------------------------------------|---------------------------|
--10----11--10----------------4--<>6--|--L--3--1------------------|
----------------/<>14\--3-5-7---------|-----------2--/5--2--0-----|
--------------------------------------|------------------------3--|
--------------------------------------|---------------------------|
--------------------------------------|---------------------------|


----------------------------|-------------------|-------------------|
----------------------------|-------------------|-------------------|
----------------------------|-------------------|-------------------|
--/5--3--0------------------|-------------------|-------------------|
------------3--/5--3-----0--|--1----------------|-------------------|
----------------------6-----|-------------------|-------------------|

Bridge :

|--------------------------|--------------------------|
|--------------------------|--------------------------|
|--3-----------3--------3--|--------3-----3--3--3--3--|
|--3-----------3--------3--|--------3-----3--3--3--3--|
|--1--1--1--1--1--1--1--1--|--1--1--1--1--1--1--1--1--|
|--------------------------|--------------------------|


--------------------------|--------------------------|
--------------------------|--------------------------|
--------------------------|--------------------------|
--5-----------5--------5--|--------5-----5--5--5--5--|
--5-----------5--------5--|--------5-----5--5--5--5--|
--5--5--5--5--5--5--5--5--|--5--5--5--5--5--5--5--5--|


--------------------------|--------------------------|
--------------------------|--------------------------|
--3-----------3--------3--|--------3-----3--3--3--3--|
--3-----------3--------3--|--------3-----3--3--3--3--|
--1--1--1--1--1--1--1--1--|--1--1--1--1--1--1--1--1--|
--------------------------|--------------------------|


--------------------------|-------------------|
--------------------------|-------------------|
--5-----------5--------5--|-------------------|
--5-----------5--------5--|-------------------|(x2)
--3--3--3--3--3--3--3--3--|-------------------|
--------------------------|-------------------|

Return To Chorus(x2)

THE END
Tap to rate this tab
# A B C D E F G H I J K L M N O P Q R S T U V W X Y Z