Guitaretab - guitar tabs
Song name
# A B C D E F G H I J K L M N O P Q R S T U V W X Y Z

All That Remains - For Salvation tab

this is my first tab, that I made. there are some parts that iput another think, it's 
95.99% correct.

PM=....


----------------------------------------------------------------------|
----------------------------------------------------------------------|
----------------------------------------------------------------------|
-------------9------10------------------------------------------------|
-2-2-------7---7--7----7--8-9-8-7-5-7---------2--3--5------------5-3--|
-0-0------------------------------------0-0-----------0-0--------3-2--|
plm..                                               palm..

GUITAR 1
----------------------------------------------------------|
----------------------------------------------------------|
----------------------------------------------------------|
----------------------------------------------------5-7---|
-2-2-2-----2-2-2-----2-2-2-2-2-2-2---2-2-2---2-2----3-5---|
-0-0-0-----0-0-0-----0-0-0-0-0-0-0---0-0-0---0-0----------|
PM.............................................

THE FIRST PART MAKE A SLIDE

GUITAR 2
--------------------------------------------------------|
--------------------------------------------------------|
--------------------------------------------------------|
-------9--------10-----------5------4-------------5--7--|
----7-----7--7------7------3---3--2----2----2-2---3--5--|
--------------------------------------------0-0---------|
                                          PM...


TWO GUITARS

--------------- ------------------------ -------- --------------------------|
--------------- ------------------------ -------- --------------------------|
--------------- ------------------------ -------- --------------------------|
--------------- ------------5----------- -------- -----5-4----5-4-----------|
---7----------- -------7------------7-8- --7----- --7-------7---------------|
------7-------- -------------------7---- ----7--- --------------------------|
      ..                         ......    ...
3 TIMES                                   3TIMES


--------- -----------------------------------------------------------------|
--------- -----------------------------------------------------------------|
--------- -----------------------------------------------------------------|
--------- ------5-4-5--9--5---------------55555555-------------------------|
--7------ ---7-------------------------------------999999999----555555555--|
----7---- ----------------------88888888-----------------------------------|
.....
 3 TIMES


-------------- -------------- ---------- ---------- ----------------|
-------------- -------------- ---------- ---------- ----------------|
-------------- -------------- ---------- ---------- ----------------|
--5----------- ---4---------- ---------- ---------- ----------------|
----7--------- ------5------- ---5------ --7------- -10--9--7--5----|
-------------- -------------- ------7--- -----9---- ----------------|
REPEAT 6 TIMES  REPEAT 6TIMES  6TIMES     6TIMES


----------------------------------------------------------------------|
----------------------------------------------------------------------|
----------------------------------------------------------------------|
-------------9------10------------------------------------------------|
-2-2-------7---7--7----7--8-9-8-7-5-7---------2--3--5------------5-3--|
-0-0------------------------------------0-0-----------0-0--------3-2--|
pm..                                               pm..


GUITAR 1
----------------------------------------------------------|
----------------------------------------------------------|
----------------------------------------------------------|
----------------------------------------------------5-7---|
-2-2-2-----2-2-2-----2-2-2-2-2-2-2---2-2-2---2-2----3-5---|
-0-0-0-----0-0-0-----0-0-0-0-0-0-0---0-0-0---0-0----------|
PM.............................................


GUITAR 2
--------------------------------------------------------|
--------------------------------------------------------|
--------------------------------------------------------|
-------9--------10-----------5------4-------------5--7--|
----7-----7--7------7------3---3--2----2----2-2---3--5--|
--------------------------------------------0-0---------|
                                          PM...


TWO GUITARS

--------------- ------------------------ -------- --------------------------|
--------------- ------------------------ -------- --------------------------|
--------------- ------------------------ -------- --------------------------|
--------------- ------------5----------- -------- -----5-4----5-4-----------|
---7----------- -------7------------7-8- --7----- --7-------7---------------|
------7-------- -------------------7---- ----7--- --------------------------|
      ..                         ......    ...
3 TIMES                                   3TIMES

[ Tab from: http://www.guitaretab.com/a/all-that-remains/62598.html ]
--------- -----------------------------------------------------------------|
--------- -----------------------------------------------------------------|
--------- -----------------------------------------------------------------|
--------- ------5-4-5--9--5---------------55555555-------------------------|
--7------ ---7-------------------------------------999999999----555555555--|
----7---- ----------------------88888888-----------------------------------|
.....
 3 TIMES


-------------- -------------- ---------- ---------- ----------------|
-------------- -------------- ---------- ---------- ----------------|
-------------- -------------- ---------- ---------- ----------------|
--5----------- ---4---------- ---------- ---------- ----------------|
----7--------- ------5------- ---5------ --7------- -10--9--7--5----|
-------------- -------------- ------7--- -----9---- ----------------|
REPEAT 6 TIMES  REPEAT 6TIMES  6TIMES     6TIMES


-------------- -------------- ---------- ---------- ----------------|
-------------- -------------- ---------- ---------- ----------------|
-------------- -------------- ---------- ---------- ----------------|
--5----------- ---4---------- ---------- ---------- ----------------|
----7--------- ------5------- ---5------ --7------- -10--9--7--5----|
-------------- -------------- ------7--- -----9---- ----------------|
REPEAT 6 TIMES  REPEAT 6TIMES  6TIMES     6TIMES

---------------------------------------------------------------------|
---------------------------------------------------------------------|
---------------------------------------------------------------------|
--5-----5------4----4------------------------------------------------|
-----7-----7------5----5---2-2-2-2-2-2--------5----5-------10-9-7--5-|
---------------------------0-0-0-0-0-0-----------7----7--------------|
                           PM.........


---------------------------------------------------------------------|
---------------------------------------------------------------------|
---------------------------------------------------------------------|
--5-----5------4----4------------------------------------------------|
-----7-----7------5----5---2-2-2-2-2-2--------5----5-------10-9-7--5-|
---------------------------0-0-0-0-0-0-----------7----7--------------|
                           PM.........fast


---------------------------------------------------------------------------|
---------------------------------------------------------------------------|
--------4---------------2----------------------------2---------------------|
---5-------5-----3---------3-------------------3-------3--3----5----5-4--3-|
------7-------------5-----------2-2-2-2-2-2-------5----------5---7---------|
--------------------------------0-0-0-0-0-0--------------------------------|
                                PM.....fast


-------------------------------------------------------|
-------------------------------------------------------|
-------------------------------------------------------|
-------------------------------------------------------|
---2-2-2---2-2-2----2-2-2-2-2-2-2---2-2-2--------------|
---0-0-0---0-0-0----0-0-0-0-0-0-0---0-0-0--------------|
PM.......................................

-------------------------------------------------------|
-------------------------------------------------------|
-------------------------------------------------------|
-------------------------------------------------------|
---2-2-2---2-2-2----2-2-2-2-2-2-2---2-2-2--------------|
---0-0-0---0-0-0----0-0-0-0-0-0-0---0-0-0--------------|
PM.......................................
 then make a slide


GUITAR 1
--------------------------------------------------------|
--------------------------------------------------------|
--------------------------------------------------------|
--------------------------------------------------------|
-2-2-2-----2-2-2-----2-2-2-2-2-2-2---2-2-2---2-2--------|
-0-0-0-----0-0-0-----0-0-0-0-0-0-0---0-0-0---0-0--------|
PM.............................................


GUITAR 2
--------------------------------------------------------|
--------------------------------------------------------|
--------------------------------------------------------|
-------9--------10-----------5------4-------------------|
----7-----7--7------7------3---3--2----2----------------|
--------------------------------------------------------|

GUITAR 1

------------------------------------------------------------------------|
------------------------------------------------------------------------|
------------------------------------------------------------------------|
--9--9-9-9-9-9----7---7-7-7-7-7-7----4---4-4-4-4-4-4----5---5-5-5-5-5-5-|
--7--7-7-7-7-7----5---5-5-5-5-5-5----2---2-2-2-2-2-2----3---3-3-3-3-3-3-|
------------------------------------------------------------------------|
     PM.......        PM.........        PM.........        PM.........
                  ALL REPEAT LIKE 7 TIMES

GUITAR2 THE SOLO


-------------------------------------------|
-------------------------------------------|
-------------------------------------------|
-------------------------------------------|
--2-2-2---2-2-2-----2-2-2-2-2-2-2----------|
--0-0-0---0-0-0-----0-0-0-0-0-0-0----------|
PM................................


-------------------------------------------|
-------------------------------------------|
-------------------------------------------|
-------------------------------------------|
--2-2-2---2-2-2-----2-2-2-2-2-2-2----------|
--0-0-0---0-0-0-----0-0-0-0-0-0-0----------|
PM................................


THE END........ I HOPE YOU LIKED .ALL THAT REMAINS ROCK     
 MAYBE I WILL TAB "THIS CALLING" IN DROP D
Related for For Salvation tab