Song name
# A B C D E F G H I J K L M N O P Q R S T U V W X Y Z

All That Remains - It Dwells On Me tab

No solo. I'm not good enough to play solo's yet :(

Tuning: Down 1 Step (D G C F A D)

Verse
Guitars 1 & 2
|---------------------------------|
|---------------------------------|
|---------------------------------|(Play riff twice)
|-------------------------2-----4-|
|-2-----------------------3-----5-|
|-0-0-000-0-0-000-0-0-000---3-0---|

Guitars 1 & 2
|---------------------------------|
|---------------------------------|
|---------------------------------|
|-2-----2-----2---4-----4-----4---|
|-3-3-3-3-3-3-3-3-5-5-5-5-5-5-5-5-|
|---------------------------------|

Guitars 1 & 2
|---------------------------------|
|---------------------------------|
|---------------------------------|(Play riff twice)
|-------------------------2-----4-|
|-2-----------------------3-----5-|
|-0-0-000-0-0-000-0-0-000---3-0---|

Guitars 1 & 2
|---------------------------------|
|---------------------------------|
|---------------------------------|
|-2-----2-----2---4-----4-----4---|
|-3-3-3-3-3-3-3-3-5-5-5-5-5-5-5-5-|
|---------------------------------|

Guitars 1 & 2
|---------------------------------|
|---------------------------------|
|---------------------------------|
|---------------------------------|
|-2-------------------------------|
|-0-0-000-0-0-000-0-0-0-0-0-0-0-0-|


Chorus
Guitars 1 & 2
|----------------------------|
|----------------------------|
|----------------------------|
|-7---9----------------------|
|-5---7---2----------5-3-2---|
|---0---0-0----0-2-3-------3-|

|------------------------|
|------------------------|
|------------------------|
|-7---9---4----5---4-----|
|-5---7---5------0---0-5-|
|---0---0----------------|

|------------------------------------------|
|------------------------------------------|
|------------------------------------------|
|-7---9------------------------2-----------|
|-5---7---2----------5-3-2-------5-3-2-----|
|---0---0-0----0-2-3-------3-----------3-0-|

Repeat Verse Riff Once
Repeat Chorus Riff Twice

Next Riff
Guitars 1 & 2
|-----------------------------|
|-----------------------------|
|-----------------------------|
|-----5---5--5--5--5------5-7-|
|-33333---3--3--3--3--33333-5-|
|-----------------------------|

Guitars 1 & 2
|-------------------------------|
|-------------------------------|
|-------------------------------|
|-------------------------------|
|------2---2-3-0------2---3---5-|
|-0000---0-------0-00---0---0---|

Guitars 1 & 2
|-----------------------------|
|-----------------------------|
|-----------------------------|
|-----5---5--5--5--5------5-7-|
|-33333---3--3--3--3--33333-5-|
|-----------------------------|

Guitars 1 & 2
|--------------------------------|
|--------------------------------|
|--------------------------------|
|--------------------------------|
|------2---2-3-5---------5-3-2---|
|-0000---0---------002-3-------3-|

Repeat Above Riff 3 Times

Bridge
Guitars 1 & 2
|----------------------------|
|----------------------------|
|----------------------------|
|----------------------------|
|----------------------------|
|-00000-----0--0--0--0-00000-|

Guitars 1 & 2
|--------------------------------|
|--------------------------------|
|--------------------------------|
|--------------------------------|
|------------------------5-3-2---|
|-00000-----0--0---0-2-3-------3-|

Guitars 1 & 2
|----------------------------|
|----------------------------|
|----------------------------|
|----------------------------|
|----------------------------|
|-00000-----0--0--0--0-00000-|

Guitars 1 & 2
|---------------------------------|
|---------------------------------|
|---------------------------------|
|-----------------5-4-------------|
|---------------------7-5---------|
|-00000-----0--0----------8-7-5-3-|

Repeat Above Riff Once

..Continued..
Guitar 1
|----------------|
|----------------|
|----------------|
|-------7------5-|
|---5---5------5-|
|-0-3-0------0-3-|
|
Guitar 2
|----------------------------|
|----------------------------|
|----------------------------|
|----------------------------|
|----------------------------|
|-00000-----0--0--0--0-00000-|

Guitar 1
|----------------|
|----------------|
|-------5--------|
|-------5------7-|
|---5---3------7-|
|-0-3-0------0-5-|
|
Guitar 2
|--------------------------------|
|--------------------------------|
|--------------------------------|
|--------------------------------|
|------------------------5-3-2---|
|-00000-----0--0---0-2-3-------3-|

Guitar 1
|----------------|
|----------------|
|----------------|
|-------7------5-|
|---5---5------5-|
|-0-3-0------0-3-|
|
Guitar 2
|----------------------------|
|----------------------------|
|----------------------------|
|----------------------------|
|----------------------------|
|-00000-----0--0--0--0-00000-|

Guitar 1
|---------------|
|---------------|
|---2-----------|
|---2----4----2-|
|---0----4----2-|
|---------------|
|
Guitar 2
|---------------------------------|
|---------------------------------|
|---------------------------------|
|-----------------5-4-------------|
|---------------------7-5---------|
|-00000-----0--0----------8-7-5-3-|

Repeat Chorus

Outro - Just a bunch of 0's like the bridge, I'm sure you can figure 

out the rhythm.
Tap to rate this tab
# A B C D E F G H I J K L M N O P Q R S T U V W X Y Z