Guitaretab - guitar tabs
Song name
# A B C D E F G H I J K L M N O P Q R S T U V W X Y Z

All That Remains - Empty Inside tab

Easy stuff just listen to the song a couple of times...
first time writing a tab and im not sure how many
lines are on a line of music but im pretty sure i got it right.
its all in standard tuning.

_h = hammer on

E|---------------------------------------------|
B|---------------------------------------------|
G|---------------------------------------------|  4x
D|--0---0-02h3h-----32h-------53h2h-2-23h0-0---|
A|----------------1----3---3--------------3----|
E|---------------------------------------------|
[ Tab from: http://www.guitaretab.com/a/all-that-remains/78004.html ]
2nd guitar enters here with the harmony but since you
are one guitar player i will do that part later.
E|---------------------------------------------|
B|---------------------------------------------|
G|---------------------------------------------|
D|--00---32----33--532---00-32---3--3---32h02h-|
A|---------3-------------------3----33-33------|
E|---------------------------------------------|

In the second verse it does that part twice
but the first timeits only once.

E|---------------------------------------------|
B|---------------------------------------------|
G|---------------------------------------------|
D|-33-5-78-7-55-3-5-33-5-7-5-77-9-12-9---------|
A|---------------------------------------------|
E|---------------------------------------------|

it's a pretty heavy sounding song and beginners can still play it.
Related for Empty Inside tab
Advertisement will be closed in 10 seconds