Song name
# A B C D E F G H I J K L M N O P Q R S T U V W X Y Z

All That Remains - Become The Catalyst tab

Artist: All That Remains
Song: Become The Catalyst
Album: The Fall Of Ideals
Tuning: D Standard

This is a tough solo. This took me awhile but I figured it out. I don't have the end 
though. I'm pretty sure it's 100% or close to it. Please rate and comment.


d-12-11-8-----------------------------------------------------|
a---------12-11-8----8-10-12-10-8-11-10-8---------------------|
f-----------------11----------------------11-10-9-8---8h11p8--|
c---------------------------------------------------9---------|
g-------------------------------------------------------------|
D-------------------------------------------------------------|

d-------------------------------------------------------------|
a-------------------------------------------------------------|
f-------------------------------------------------------------|
c-9-10-9-8-----------------------------7--------10---9-9h10p8-|
g----------10-9-8-6-7-8-9p6-7-9-7-9-10---10-9-7----7----------|
D-------------------------------------------------------------|

d------------------------------------------------------------8-|
a-----------------------10---11-12-10--------------8-9-10-11---|
f-5*------8---11-8-12-8----8----------11-8-9-10-11-------------|
c-------9---9--------------------------------------------------|
g----10--------------------------------------------------------|
D--------------------------------------------------------------|

d-------------------------------------------------------------|
a-12p8----8---8----8h12p8----8--11p8----8---8----8h11p8----8--|
f------11---9---11--------11---------11---9---11--------11----|
c-------------------------------------------------------------|
g-------------------------------------------------------------|
D-------------------------------------------------------------|

d-------------------------14-13-12----------------------------|
a-13-12-11-10/11-12-13-14----------16p12---------------10-----|
f----------------------------------------11---------11--------|
c-------------------------------------------13p9h13-----------|
g-------------------------------------------------------------|
D-------------------------------------------------------------|

d-------------------------------------------------------------|
a-13-12-11-10//-----------------------------------------------|
f---------------\\\12-----------------------------------------|
c-------------------------------------------------------------|
g-------------------------------------------------------------|
D-------------------------------------------------------------|
Tap to rate this tab
 
# A B C D E F G H I J K L M N O P Q R S T U V W X Y Z