Song name
# A B C D E F G H I J K L M N O P Q R S T U V W X Y Z

All That Remains - Whispersi Hear You tab

Part 1
e---------------------------------------------------------------|
B---------------------------------------------------------------|
G---------------------------------------------------------------|
D---------------------------------------------------------------|
A----5-7-8-7-5---10108-887---5-7-8-7-5--10108-0-887-0-3---------|
D--00----------00----------00------------------------3----------|
   ..          ..          ..
Repeatx1


e---------------------------------------------------------------|
B---------------------------------------------------------------|
G---------------------------------------------------------------|
D---------------------------------------------------------------|
A----5-7-8-7-5-------------5-7-8-7-5--10108-0-887-0-3-----------|
D--00----------000--000--00------------------------3------------|
Both guitars

Sorry i couldnt get around to figuring out the whole song. Thx and enjoy!!
Tap to rate this tab
# A B C D E F G H I J K L M N O P Q R S T U V W X Y Z