Song name
# A B C D E F G H I J K L M N O P Q R S T U V W X Y Z

All That Remains - From These Wounds tab

artist: All That Remains
song: From These Wounds
album: Behind Silence And Solitude
year: 2002
tuning: B-Standard (BEADF#B)

This is an older All That Remains song from the album Behind Silence And Solitude. I 
out most of the song by ear but I couldn't figure out the solo/rhythm and the outro. I know 
tab is not perfect but this is the best I can do so far.


intro: (played once) Both Guitar I & II
B|-------------------------------------------------------------------------------------------------------------------------|
F#|------------------------------------------------------------------------------------------------------------------------|
D|-------------------------------------------------------------------------------------------------------------------------|
A|-----99-7-9---------9---------99-7-9---------9-10-9-7--77-5-7--------5-------7-5-4---5-4-2-------------------------------|
E|-----77-5-7--7-9-10---10-9-7--77-5-7--7-9-10-----------55-3-5--5-7-9---9-7-5-------5-------5-9-7-5---5-------------------|
B|---------------------------------------------------------------------------------------------------8---8-7-5-7-8-7-5-----|


verse: (played twice) Both Guitar I & II
B|----------------------------------------------------------------|
F#|---------------------------------------------------------------|
D|-------------------------------------------4----------------4---|
A|--------5h9----5h7----4h5---7---4h5----2---2----5---5---4---2---|
E|-----77-----77-----55-----5---5-----33---3---33---3---3---3-----|
B|----------------------------------------------------------------|
       ..     ..     ..     .   .     ..   .   ..   .   .   .

B|---------------------------------------------------------------------------|
F#|--------------------------------------------------------------------------|
D|---------------------------------------------------------------------------|
A|--------5h9----5h7--------7------------------------------------------------|
E|-----77-----77-----7-9-10---10-9-7-----------------------------------------|
B|-----------------------------------77777777888888881010101010101010--------|
       ..     ..                     ................ . . . . . . . .


harmonized verse: (played twice) Guitar II
B|-------------------------------------------------------------------------|
F#|------------------------------------------------------------------------|
D|----------------------------------------------------4----------------4---|
A|--------9h12----9h10------9h10----12----9h10----2---2----5---5---4---2---|
E|-----77------77------------------------------33---3---33---3---3---3-----|
B|---------------------1010------10----10----------------------------------|
       ..      ..       . .       .     .      ..   .   ..   .   .   .

B|-----------------------------------------------------------------------------|
F#|----------------------------------------------------------------------------|
D|-----------------------------------------------------------------------------|
A|--------9h12----9h10----------10---------------------------------------------|
E|-----77------77------10-12-14----14-12-10------------------------------------|
B|------------------------------------------77777777888888881010101010101010---|

       ..     ..                            ................ . . . . . . . .


chorus: (played twice) Both Guitar I & II
B|-------------------------------------------------------------------------------------------------------------------------|
F#|------------------------------------------------------------------------------------------------------------------------|
D|-------------------------------------------------------------------------------------------------------------------------|
A|-----99-7-9---------9---------99-7-9---------9-10-9-7--77-5-7--------5-------7-5-4---5-4-2-------------------------------|
E|-----77-5-7--7-9-10---10-9-7--77-5-7--7-9-10-----------55-3-5--5-7-9---9-7-5-------5-------5-9-7-5---5-------------------|
B|---------------------------------------------------------------------------------------------------8---8-7-5-7-8-7-5-----|

verse: (played twice) Both Guitar I & II
B|----------------------------------------------------------------|
F#|---------------------------------------------------------------|
D|-------------------------------------------4----------------4---|
A|--------5h9----5h7----4h5---7---4h5----2---2----5---5---4---2---|
E|-----77-----77-----55-----5---5-----33---3---33---3---3---3-----|
B|----------------------------------------------------------------|
       ..     ..     ..     .   .     ..   .   ..   .   .   .

B|---------------------------------------------------------------------------|
F#|--------------------------------------------------------------------------|
D|---------------------------------------------------------------------------|
A|--------5h9----5h7--------7------------------------------------------------|
E|-----77-----77-----7-9-10---10-9-7-----------------------------------------|
B|-----------------------------------77777777888888881010101010101010--------|
       ..     ..                     ................ . . . . . . . .


harmonized verse: (played twice) Guitar II
B|-------------------------------------------------------------------------|
F#|------------------------------------------------------------------------|
D|----------------------------------------------------4----------------4---|
A|--------9h12----9h10------9h10----12----9h10----2---2----5---5---4---2---|
E|-----77------77------------------------------33---3---33---3---3---3-----|
B|---------------------1010------10----10----------------------------------|
       ..      ..       . .       .     .      ..   .   ..   .   .   .

B|-----------------------------------------------------------------------------|
F#|----------------------------------------------------------------------------|
D|-----------------------------------------------------------------------------|
A|--------9h12----9h10----------10---------------------------------------------|
E|-----77------77------10-12-14----14-12-10------------------------------------|
B|------------------------------------------77777777888888881010101010101010---|

       ..     ..                            ................ . . . . . . . .


chorus: (played four times) Both Guitar I & II
B|-------------------------------------------------------------------------------------------------------------------------|
F#|------------------------------------------------------------------------------------------------------------------------|
D|-------------------------------------------------------------------------------------------------------------------------|
A|-----99-7-9---------9---------99-7-9---------9-10-9-7--77-5-7--------5-------7-5-4---5-4-2-------------------------------|
E|-----77-5-7--7-9-10---10-9-7--77-5-7--7-9-10-----------55-3-5--5-7-9---9-7-5-------5-------5-9-7-5---5-------------------|
B|---------------------------------------------------------------------------------------------------8---8-7-5-7-8-7-5-----|


solo & rhythm: I couldn't figure out the solo or the rhythm yet, if you guys figure out 
solo, please either use this tab to paste it on the solo section of the tab or use the 
version of the tab.


chorus: (played once) Both Guitar I & II
B|-------------------------------------------------------------------------------------------------------------------------|
F#|------------------------------------------------------------------------------------------------------------------------|
D|-------------------------------------------------------------------------------------------------------------------------|
A|-----99-7-9---------9---------99-7-9---------9-10-9-7--77-5-7--------5-------7-5-4---5-4-2-------------------------------|
E|-----77-5-7--7-9-10---10-9-7--77-5-7--7-9-10-----------55-3-5--5-7-9---9-7-5-------5-------5-9-7-5---5-------------------|
B|---------------------------------------------------------------------------------------------------8---8-7-5-7-8-7-5-----|


outro: I couldn't figure out the outro either, but again if you guys figure it out do 
same direction as I told you to do on the solo section.
Tap to rate this tab
 
# A B C D E F G H I J K L M N O P Q R S T U V W X Y Z