Song name
# A B C D E F G H I J K L M N O P Q R S T U V W X Y Z

All The Luck In The World - Never tab

-------------------------------------------------------------------------------
                             NEVER - All The Luck In The World
-------------------------------------------------------------------------------
Tabbed by:
E-mail:

Tuning:standard

D Chord

Play the e and b strings together with an upstroke. I think the original sounds a
bit less structured than this but you get the general idea

e|---2---2---2---2-------2---2---2---2-------------------------2---2---2--2----|
B|---3---3---3---3-------3---3---3---3------3---3---3---3------3---3---3--3----|
G|------------------X2-----------------X2---0---0---0---0-X2----------------X2-|
D|-0---0---0---0-------2---2---2---2-------------------------------------------|
A|----------------------------------------2---2---2---2------2---2---2---2-----|
E|-----------------------------------------------------------------------------|




Tap to rate this tab
 
# A B C D E F G H I J K L M N O P Q R S T U V W X Y Z