Song name
# A B C D E F G H I J K L M N O P Q R S T U V W X Y Z

All The Young - Welcome Home tab

-------------------------------------------------------------------------------
			     Welcome Home - All The Young
-------------------------------------------------------------------------------


Tabbed by: Casey Copestick

Tuning: STANDARD

The lead guitarist plays a Black Beauty Les Paul through what looks like a Marshall 
JCM800. Gain and Treble up pretty high.

http://www.youtube.com/watch?v=EoLGasV7pIM

http://www.alltheyoung.co.uk/



// I haven't tabbed the intro riff or the bridge yet but I'll get round to it. //


 Intro, Verse
e|---------------------------------------------------------------------------|
B|---------------------------------------------------------------------------|
G|--6------------------------------------------------------------------------|
D|--6--6--4------------------------------------------------------------------|
A|--4--6--4------------------------------------------------------------------|
E|-----4--2------------------------------------------------------------------|

Chorus
e|---------------------------------------------------------------------------|
B|---------------------------------------------------------------------------|
G|--9------------------------------------------------------------------------|
D|--9--9--4------------------------------------------------------------------|
A|--7--9--4------------------------------------------------------------------|
E|-----7--2------------------------------------------------------------------|




Pre solo breakdown(3:02) // Ringing chord as solo starts (3:08)
e|---------------------------------------------------------------------------|
B|---------------------------------------------------------------------------|
G|--6-----------------------------------------6------------------------------|
D|--6--6--4-----------------------------------6------------------------------|
A|--4--6--4-----------------------------------4------------------------------|
E|-----4--2------------------------------------------------------------------|



 Solo - First lick
e|---------------------------------------------------------------------------|
B|-----5-------------------5----7----5---------------------------------------|
G|--6----6----4------4-----------------8----6------------------X4------------|
D|--------------6------------------------------------------------------------|
A|---------------------------------------------------------------------------|
E|---------------------------------------------------------------------------|


Second lick
e|----------------------14---14----------------------------------------------|
B|-----17-----16----------------17---16---17---16----------------------------|
G|--18----18-----16--------------------------------18----------X4------------|
D|------------------18-------------------------------------------------------|
A|---------------------------------------------------------------------------|
E|---------------------------------------------------------------------------|

(3:37)
e|---------------------------------------------------------------------------|
B|---------------------------------------------------------------------------|
G|---16b---16--------------------------------------------------X4------------|
D|---------------------------------------------------------------------------|
A|---------------------------------------------------------------------------|
E|---------------------------------------------------------------------------|

(3:49)
e|---------------------------------------------------------------------------|
B|---------------------------------------------------------------------------|
G|--18--18--18--16--18-----------------------------------------X8------------|
D|---------------------------------------------------------------------------|
A|---------------------------------------------------------------------------|
E|---------------------------------------------------------------------------|

Ending
e|---------------------------------------------------------------------------|
B|---------------------------------------------------------------------------|
G|--16b---(let ring)---------------------------------------------------------|
D|---------------------------------------------------------------------------|
A|---------------------------------------------------------------------------|
E|---------------------------------------------------------------------------|



************************************

| /   slide up
| \   slide down
| h   hammer-on
| p   pull-off
| ~   vibrato
| +   harmonic
| x   Mute note
| b   Bend
| pb  Pre-bend
| br  Bend release
| pbr Pre-bend release
| brb Bend release bend

************************************
Tap to rate this tab
# A B C D E F G H I J K L M N O P Q R S T U V W X Y Z