Guitaretab - guitar tabs
Song name
# A B C D E F G H I J K L M N O P Q R S T U V W X Y Z

All Time Low - The Party Scene tab

All Time Low
The Party Scene
Put Up Or Shut Up


Intro
e|----------------------------------------|
B|----------------------------------------|
G|---------22222222---------22222222------|
D|-4/6-4/6-22222222-4/6-4/6-22222222------|
A|-2/4-2/4-00000000-2/4-2/4-00000000------|repeat a few times
E|----------------------------------------|

e|----------------------------------|
B|----------------------------------|
G|----------------------------------|
D|--------44------------------------|
A|77--22--22--66--------------------|x4
E|55--00------44--------------------|
  **  **  **  **

Pre-Chorus
e|--------------------------------------------|
B|--------------------------------------------|
G|22222222----------4444444444444444----------|
D|22222222-22222222-4444444444444444----------|
A|00000000-22222222-2222222222222222----------|x2
E|---------00000000---------------------------|

Chorus
e|------------------------|   |------------------------|
B|------------------------|   |------------------------|
G|------------------------|   |----------2-------------|
D|666-222-----444---------|x3 |-4/6-4/6--2-------------|
A|444-000-222-222---------|   |-2/4-2/4--0-------------|
E|--------000-------------|   |------------------------|

Verse

e|------------------------------------------------|
B|------------------------------------------------|
G|------------------------------------------------|
D|66666666-99999999-2222222222222222--------------|
A|44444444-77777777-0000000000000000--------------|x2
E|------------------------------------------------|
  ******** ******** ****************
[ Tab from: http://www.guitaretab.com/a/all-time-low/103534.html ]
play pre-chorus
play chorus
For the bridge, play the second verse

Solo
e|----------------------------------------------------------|
B|----------------------------------------------------------|
G|--13------------------------------------------------------|
D|-----13-14-14-13-14-16-14-13-14-13/11-13-11-9~------------|
A|----------------------------------------------------------|
E|----------------------------------------------------------|

e|----------------------------------------------------------|
B|-----12---------------------------------------------------|
G|-------14-13-14-13-11-13-11-9-11-9-8-9--------------------|
D|----------------------------------------------------------|
A|----------------------------------------------------------|
E|----------------------------------------------------------|

e|----------------------------------------------------------|
B|--------------9----9-10-9-10-12---------------------------|
G|--8-9-11-9-11---11----------------------------------------|
D|----------------------------------------------------------|
A|----------------------------------------------------------|
E|----------------------------------------------------------|

e|-----------------------12--------|
B|---9h10p9-12--9h10p9-------------|
G|---------------------9-----------|x3
D|---------------------------------|
A|---------------------------------|
E|---------------------------------|

e|--------------------|
B|9-10-12-------------|
G|--------------------|
D|--------------------|
A|--------------------|
E|--------------------|

Play chorus and then the second part of the intro
Related for The Party Scene tab
Advertisement will be closed in 10 seconds