Song name
# A B C D E F G H I J K L M N O P Q R S T U V W X Y Z

All Time Low - Let It Roll tab

Help us improve GuitareTab! Take a short survey!
----------------------------------------------------------------------------
			     LET IT ROLL - All Time Low
----------------------------------------------------------------------------
Tabbed by:Kyle... aka The Gutless Wonder
Email:kyle2003hill@yahoo.com

This is my first tab i learned just fuckin' around with some chords, enjoy the intro to 
awesome song and just LET IT ROLL!!!!

Tuning:The tuning is STANDARD for the notes you play

e|-------------------------------------------------------------------------|
B|-------------------------------------------------------------------------|
G|--11-/--13---13-/--11--11-/--9--9--/--11---13--13------------------------|
D|--x--/--x----x--/--x---x--/--x--x--/--x----x---x-------------------------|
A|--9--/--11---11-/--9---9--/--7--7--/--9----11--11------------------------|
E|-------------------------------------------------------------------------|

e|-------------------------------------------------------------------------|
B|-------------------------------------------------------------------------|
G|--11-/--13---13-/--11--11-/--9--9--/--11---9--9--------------------------|
D|--x--/--x----x--/--x---x--/--x--x--/--x----x--x--------------------------|
A|--9--/--11---11-/--9---9--/--7--7--/--9----7--7--------------------------|
E|-------------------------------------------------------------------------|
Related for Let It Roll tab