Song name
# A B C D E F G H I J K L M N O P Q R S T U V W X Y Z

All Time Low - Let It Roll tab

I shall get onto tabbing out the lead in a while and will edit it into this tab.
But for now please enjoy learning the rhythm to this song.

Intro:
E|-------------------------|
B|-------------------------|
G|-------------------------|
D|-2-----7-----2-----7-----|
A|-2-x32-7-x32-2-x32-7-x32-|
D|-2-----7-----2-----7-----|

Verse:
E|-------------|
B|-------------|
G|-------------|
D|-7~-9~-7~-9~-|
A|-7~-9~-7~-9~-|
D|-7~-9~-7~-9~-| 

E|-------------------------------------|-----------------------------------|
B|-------------------------------------|-----------------------------------|
G|-------------------------------------|-----------------------------------|
D|-6-6-6666-7-7-7777-2-2-2222-9-9-9999-|-6-6-6666-7-7-7777-9-9-9-9-9-9-9-9-|
A|-7-7-7777-7-7-7777-2-2-2222-9-9-9999-|-7-7-7777-7-7-7777-9-9-9-9-9-9-9-9-|
D|-6-6-6666-7-7-7777-2-2-2222-9-9-9999-|-6-6-6666-7-7-7777-9-9-9-9-9-9-9-9-|

Chorus:
E|-------------------------|
B|-------------------------|
G|-------------------------|
D|-2-----7-----2-----7-----|
A|-2-x32-7-x32-2-x32-7-x32-|
D|-2-----7-----2-----7-----|

Interlude:
E|-----------------------------------|
B|-----------------------------------|
G|-66-66-----66-66-------------------|
D|-66-66-7~--66-66-7~-22-22-6~-77-99-|
A|-44-44-7~--44-44-7~-22-22-6~-77-99-|
D|-------7~--------7~-22-22-6~-77-99-|

Verse:
E|-------------------------|
B|-------------------------|
G|-------------------------|
D|-7-----9-----7-----9-----|
A|-7-x16-9-x16-7-x16-9-x16-|
D|-7-----9-----7-----9-----|
Pm..........................

E|-------------------------------------|
B|-------------------------------------|
G|-------------------------------------|
D|-6-6-6666-7-7-7777-2-2-2222-9-9-9999-|
A|-7-7-7777-7-7-7777-2-2-2222-9-9-9999-|
D|-6-6-6666-7-7-7777-2-2-2222-9-9-9999-|

E|-------|------------|
B|-------|------------|
G|-------|------------|
D|-2~-9~-|-2~-6~-7~-9-|
A|-2~-9~-|-2~-6~-7~-9-|
D|-2~-9~-|-2~-6~-7~-9-|

Chorus:
E|-------------------------|
B|-------------------------|
G|-------------------------|
D|-2-----7-----2-----7-----|
A|-2-x32-7-x32-2-x32-7-x32-|
D|-2-----7-----2-----7-----|

Middle 8:
E|-----------------------------------------------------------------|
B|-----------------------------------------------------------------|
G|-666-666-666-666-666-666-666-666---------------------------------|
D|-666-666-666-666-666-666-666-666-777-777-777-777-777-777-777-777-|
A|-444-444-444-444-444-444-444-444-777-777-777-777-777-777-777-777-|
D|---------------------------------777-777-777-777-777-777-777-777-|

E|--------------------------|
B|--------------------------|
G|--------------------------|
D|-2-----9----7-7-7--7-7-7--|
A|-2-x16-9-x8-7-7-7--7-7-7--|
D|-2-----9----7-7-7--7-7-7--|

Chorus:
E|--------|-------------------------------------|
B|--------|-------------------------------------|
G|--------|-------------6-----------------------|
D|-2~-7~7-|-2-----7-----6-x16-9-----7-----9-----|
A|-2~-7~7-|-2-x32-7-x32-4-----9-x16-7-x16-9-x16-|
D|-2~-7~7-|-2-----7-----------9-----7-----9-----|

Outro:
E|-----------------|
B|-----------------|
G|-66-66-----66-66-|
D|-66-66-7~--66-66-|
A|-44-44-7~--44-44-|
D|-------7~--------|
Tap to rate this tab
# A B C D E F G H I J K L M N O P Q R S T U V W X Y Z