Song name
# A B C D E F G H I J K L M N O P Q R S T U V W X Y Z

All Time Low - Therapy tab

----------------------------------------------------------------------------
		     THERAPY - All Time Low - Nothing Personal
----------------------------------------------------------------------------
Tabbed by: Malichi Merski
Email: Reptar.Dude@yahoo.com or Myspace.com/Malichieddi


Tuning: Drop D
Pretty beautiful song if you take time to listen to the guitar riff and
lyrics. First tab so I'm telling you right now it's not perfect but I tried
my very best to make this thing clean and easy to read. Play this for your
lover and she is your guys. [Comment on errors and i'll update it and for
                   sure leave you kudos my friends]


***NOTE*** Dont let the 0 and 4 ring out together on the B and G string
because they are basically the same note and interfere with eachother




e|-------------------------------------------------------------------------|
B|-----2h3-2~-0-----------2h3-2~-0-----------2-3-----2-3-----2h3-2~-0------|
G|---4----------4-2~----2----------4-2~----4-------2-------4----------4-2~-| X 5 
D|-2------------------0------------------2-------0-------2-----------------|
A|-------------------------------------------------------------------------|
D|-------------------------------------------------------------------------|
  My ship went down in a sea of sound when I woke up alone I had everything
  A handful of moments I wish I could change and a tongue like a nightmare 
                           that cut like a blade
 In a city of fools I was careful and cool but they tore me apart like a
                                hurricane

                                           C      D    A
e|---------------------------------------------------2---------------------| 
B|-----2h3-2~-0-----------2h3-2~-0-----------1-----3---2-------------------| [Last
G|---4----------4-2~----2------------------------2-----2-------------------| measure 
D|-2------------------0--------------------2---0-------2-------------------| plays
A|---------------------------------------3-------------0-------------------| this]
D|-------------------------------------------------------------------------|
  A hanful of moments I wish I could change but I was carried away...

     A     E     D    A     A     E     D     A
e|---------------2----------------------2----------------------------------|
B|---2-----------3----2-----2-----------3-----2----------------------------|
G|---2-----1-----2----2-----2-----1-----2-----2----------------------------|
D|---2-----2-----0----2-----2-----2-----------2----------------------------|
A|---0-----2----------0-----0-----2-----------0----------------------------|
D|-------------------------------------------------------------------------|
  Give me therapy Im a walking travesty but I'm smiling at everything
  Therapy you were never a friend to me and you can keep all your misery

e|-------------------------------------------------------------------------|      [2nd
B|-----2h3-2~-0-----------2h3-2~-0-----------2-3-----2-3-----2h3-2~-0------|      guitar
G|---4----------4-2~----2----------4-2~----4-------2-------4----------4-2~-| X 3  plays 
D|-2------------------0------------------2-------0-------2-----------------|      open
A|-------------------------------------------------------------------------|      strings]
D|-------------------------------------------------------------------------|
  My lungs gave out as I faced the crowd I think that keeping this up could 
                              be dangerous
  I'm flesh and bone I'm a rolling stone and the experts say I'm delirious

e|------------------------------------------------------0-0-0-0-0-0-0-0----|
B|-----2h3-2~-0-----------2h3-2~-0-----------2-3-----2--3-3-3-3-3-3-3-3----|
G|---4----------4-2~----2----------4-2~----4-------2----2-2-2-2-2-2-2-2----| 
D|-2------------------0------------------2-------0-------------------------|
A|-------------------------------------------------------------------------|
D|-------------------------------------------------------------------------|
  I'm flesh and bone I'm a rolling stone and the experts say I'm delirious
                                 Give Me

e|-------------------------------------------------------------------------|
B|-------------------------------------------------------------------------|
G|-----------[x8]----------------------------------------------------------| [Over
D|-0~~~~~--00000000---------------[x8]-----[x8]-----[x8]-------------------| drive]
A|-0~~~~~--00000000-------------77777777-22222222-00000000-[Repeat]--------|
D|-0~~~~~-----------------------77777777-22222222-00000000-[Repeat]--------|
           ......
  Therapy, I'm a walking travesty but im smiling at everything
  Therapy you were never a friend to me you can take back your misery

e|-------------------------------------------------------------------------|
B|-------------------------------------------------------------------------|
G|---9-------9-------4-------4-------2-------2-----------2222222~----------|
D|---9-------9-------4-------4-------2-------2--[Repeat]-2222222~----------|
A|-7-7---7-7-7-----2-2---2-2-2-----0-0---0-0-0-----------0000000~----------|
D|-7-----7-7-------2-----2-2-------0-----0-0-------------------------------|
  Arrogant boy love yourself so no one has to they're better off without you
  Arrogant boy cause a scene like your supposed to they'll fall asleep 
                             without you
                  Your lucky your memories remain

     A     E     D    A     
e|---------------2---------------------------------------------------------|
B|---2-----------3----2----------------------------------------------------|
G|---2-----1-----2----2----------------------------------------------------|
D|---2-----2-----0----2---00000000-----[X8]-----[X8]-----[X8]--------------|
A|---0-----2----------0---00000000---77777777-22222222-00000000-[Repeat]-7~|
D|-----------------------------------77777777-22222222-00000000-[Repeat]-7~|
                          ......
  Give me therapy I'm a waling travesty but I'm smiling at everything
  Therapy you were never a frien to me you can take back your misery
  Therapy but I'm smiling at everyhing therapy you were never a friend to me
                    You can choke on your misery

                                                          A
e|-------------------------------------------------------------------------|
B|-----2h3-2~-0----------2h3-2~ 0------------2-0-----2-0--2----------------|
G|---4----------4-2~---2----------4-2~-----4-------2------2----------------| 
D|-2-----------------0-------------------2-------0--------2----------------|
A|--------------------------------------------------------0----------------|
D|-------------------------------------------------------------------------|



As I said...Gorgeous song, hope you enjoyed reading my first tab. Please
comment and let me know what I need to work on. Thank you dearly in advance
=]

.:Tab Legend:.
| h  hammer-on
| A  chords
| ~  vibrato
| .  Palm mute
Tap to rate this tab
 
# A B C D E F G H I J K L M N O P Q R S T U V W X Y Z