Song name
# A B C D E F G H I J K L M N O P Q R S T U V W X Y Z

All Time Low - Walls tab

-------------------------------------------------------------------------------
			     Walls - All Time Low
-------------------------------------------------------------------------------
Tabbed by: Matthew M
Email: nucleardelay@hotmail.com

Tuning: DADGBE

1st Verse
e|---------------------------------------------------------------------------|
B|---------------------------------------------------------------------------|
G|---------------------------------------------------------------------------|
D|5-10-5---------------------------------------------------------------------|
A|---------------------------------------------------------------------------|
E|---------------------------------------------------------------------------|

Pre-Chorus
e|---------------------------------------------------------------------------|
B|---------------------------------------------------------------------------|
G|---------------------------------------------------------------------------|
D|5-7-10-1010101010101010----------------------------------------------------|
A|5-7-10-1010101010101010----------------------------------------------------|
E|5-7-10-1010101010101010----------------------------------------------------|

Chorus 
e|---------------------------------------------------------------------------|
B|---------------------------------------------------------------------------|
G|---------------------------------------------------------------------------|
D|555555-000000-222222-101010101010------------------------------------------|
A|555555-000000-222222-101010101010------------------------------------------|
E|555555-000000-222222-101010101010------------------------------------------|

e|---------------------------------------------------------------------------|
B|---------------------------------------------------------------------------|
G|---------------------------------------------------------------------------|
D|555555-000000-101010101010101010101010-------------------------------------|
A|555555-000000-101010101010101010101010-------------------------------------|
E|555555-000000-101010101010101010101010-------------------------------------|

e|---------------------------------------------------------------------------|
B|---------------------------------------------------------------------------|
G|---------------------------------------------------------------------------|
D|555555-777777-222222-101010101010------------------------------------------|
A|555555-777777-222222-101010101010------------------------------------------|
E|555555-777777-222222-101010101010------------------------------------------|

e|---------------------------------------------------------------------------|
B|---------------------------------------------------------------------------|
G|---------------------------------------------------------------------------|
D|555555-000000-101010101010101010101010-------------------------------------|
A|555555-000000-101010101010101010101010-------------------------------------|
E|555555-000000-101010101010101010101010-------------------------------------|

Pre verse / 2nd Verse
e|-----------|----------------------------------------------------------------|
B|-----------|----------------------------------------------------------------|
G|-----------|----------------------------------------------------------------|
D|5-tremolo--|-55555555-77777777-22222222-1010101010101010---x2---------------|
A|-----------|-55555555-77777777-22222222-1010101010101010--------------------|
E|-----------|-55555555-77777777-22222222-1010101010101010--------------------|

Chorus

Bridge 
e|---------------------------------------------------------------------------|
B|---------------------------------------------------------------------------|
G|---------------------------------------------------------------------------|
D|22222222-------------------------------------------------------------------|
A|22222222-------------------------------------------------------------------|
E|22222222-44444-55555-77777-99999-1010101010-99999--------------------------|

e|---------------------------------------------------------------------------|
B|---------------------------------------------------------------------------|
G|---------------------------------------------------------------------------|
D|22222222-------------------------------------------------------------------|
A|22222222-------------------------------------------------------------------|
E|22222222-1010101010-99999-77777-55555-44444-55555--------------------------|

e|---------------------------------------------------------------------------|
B|---------------------------------------------------------------------------|
G|---------------------------------------------------------------------------|
D|---------------------------------------------------------------------------|
A|---------------------------------------------------------------------------|
E|-1010101010-99999-77777-55555-44444-55555----------------------------------|

Solo Rhythm 
e|---------------------------------------------------------------------------|
B|---------------------------------------------------------------------------|
G|---------------------------------------------------------------------------|
D|555555-000000-222222-101010101010------------------------------------------|
A|555555-000000-222222-101010101010------------------------------------------|
E|555555-000000-222222-101010101010-99999-77777-55555-44444-55555------------|

e|---------------------------------------------------------------------------|
B|---------------------------------------------------------------------------|
G|---------------------------------------------------------------------------|
D|---------------------------------------------------------------------------|
A|---------------------------------------------------------------------------|
E|-1010101010-99999-77777-55555-44444-55555----------------------------------|

Solo Lead

e|------17---22-20-19-15-----------------------------------------------------|
B|15-17---15-----------------------------------------------------------------|
G|---------------------------------------------------------------------------|
D|---------------------------------------------------------------------------|
A|---------------------------------------------------------------------------|
E|---------------------------------------------------------------------------| 

Chorus / Outro

e|---|-----------------------------------------------------------------------|
B|---|-----------------------------------------------------------------------|
G|---|-----------------------------------------------------------------------|
D|5--|-55555555-77777777-22222222-1010101010101010---------------------------|
A|---|-55555555-77777777-22222222-1010101010101010---------------------------|
E|---|-55555555-77777777-22222222-1010101010101010---------------------------|

e|---------------------------------------------------------------------------|
B|---------------------------------------------------------------------------|
G|---------------------------------------------------------------------------|
D|555555-000000-101010101010101010101010-------------------------------------|
A|555555-000000-101010101010101010101010-------------------------------------|
E|555555-000000-101010101010101010101010-------------------------------------|

e|---------------------------------------------------------------------------|
B|---------------------------------------------------------------------------|
G|---------------------------------------------------------------------------|
D|555555-000000-222222-------------------------------------------------------|
A|555555-000000-222222-------------------------------------------------------|
E|555555-000000-222222-1010101010-999999-77777-55555-44444-55555-------------|

e|---------------------------------------------------------------------------|
B|---------------------------------------------------------------------------|
G|---------------------------------------------------------------------------|
D|------------------------------------------55-------------------------------|
A|------------------------------------------55-------------------------------|
E|-1010101010-99999-77777-55555-44444-55555-55-------------------------------|

Pretty easy song, I didn't put the precise timing, but you'll figure it out.

===============================================================================
Tap to rate this tab
# A B C D E F G H I J K L M N O P Q R S T U V W X Y Z