Song name
# A B C D E F G H I J K L M N O P Q R S T U V W X Y Z

All Time Low - Hello Brooklyn tab

-------------------------------------------------------------------------------
			    Hello Brooklyn - All Time Low
-------------------------------------------------------------------------------
Tabbed by: Matthew M
Email: nucleardelay@hotmail.com

Tuning: DADGBE

Intro / 1st Verse
e|---------------------------------------------------------------------------|
B|---------------------------------------------------------------------------|
G|---------------------------------------------------------------------------|
D|44-99----------------------------------------------------------------------| x4
A|22-77-77-44----------------------------------------------------------------|
E|------77-44----------------------------------------------------------------|

e|---------------------------------------------------------------------------|
B|---------------------------------------------------------------------------|
G|---------------------------------------------------------------------------|
D|44-99----2-----------------------------------------------------------------| x1
A|22-77-77-2-----------------------------------------------------------------|
E|------77-2-----------------------------------------------------------------|

Chorus 
e|---------------------------------------------------------------------------|
B|---------------------------------------------------------------------------|
G|---------------------------------------------------------------------------|
D|77777-22222-44444-77777----------------------------------------------------| x3
A|77777-22222-22222-55555----------------------------------------------------|
E|77777-22222----------------------------------------------------------------|

e|---------------------------------------------------------------------------|
B|---------------------------------------------------------------------------|
G|---------------------------------------------------------------------------|
D|77777 22222-44-77----------------------------------------------------------| x1
A|77777-22222-22-55----------------------------------------------------------|
E|77777-22222----------------------------------------------------------------|

e|---------------------------------------------------------------------------|
B|---------------------------------------------------------------------------|
G|---------------------------------------------------------------------------|
D|77777-22222-44444-77777----------------------------------------------------| x1
A|77777-22222-22222-55555----------------------------------------------------|
E|77777-22222----------------------------------------------------------------|

2nd Verse Guitar 1
e|---------------------------------------------------------------------------|
B|---------------------------------------------------------------------------|
G|---------------------------------------------------------------------------|
D|44-99----------------------------------------------------------------------| x3
A|22 77-77-44----------------------------------------------------------------|
E|------77-44----------------------------------------------------------------|

e|---------------------------------------------------------------------------|
B|---------------------------------------------------------------------------|
G|---------------------------------------------------------------------------|
D|44-99----2-----------------------------------------------------------------| x1
A|22-77-77-2-----------------------------------------------------------------|
E|------77-2-----------------------------------------------------------------|

Chorus 
e|---------------------------------------------------------------------------|
B|---------------------------------------------------------------------------|
G|---------------------------------------------------------------------------|
D|77777-22222-44444-77777----------------------------------------------------| x4
A|77777-22222-22222-55555----------------------------------------------------|
E|77777-22222----------------------------------------------------------------|

Bridge
e|---------------------------------------------------------------------------|
B|---------------------------------------------------------------------------|
G|---------------------------------------------------------------------------|
D|44-22-77777-99999----------------------------------------------------------| x1
A|44-22-55555-77777----------------------------------------------------------|
E|44-22----------------------------------------------------------------------|

e|---------------------------------------------------------------------------|
B|---------------------------------------------------------------------------|
G|---------------------------------------------------------------------------|
D|44-22-77777-0--------------------------------------------------------------| x1
A|44-22-55555-0--------------------------------------------------------------|
E|44-22-------0--------------------------------------------------------------|

Chorus 
e|---------------------------------------------------------------------------|
B|---------------------------------------------------------------------------|
G|---------------------------------------------------------------------------|
D|77-22-44-77----------------------------------------------------------------| x1
A|77-22-22-55----------------------------------------------------------------|
E|77-22----------------------------------------------------------------------|

e|---------------------------------------------------------------------------|
B|---------------------------------------------------------------------------|
G|---------------------------------------------------------------------------|
D|77-22-7--------------------------------------------------------------------| x1
A|77-22-5--------------------------------------------------------------------|
E|77-22----------------------------------------------------------------------|

Outro
e|---------------------------------------------------------------------------|
B|---------------------------------------------------------------------------|
G|---------------------------------------------------------------------------|
D|77777-22222-44444-77777----------------------------------------------------| x5
A|77777-22222-22222-55555----------------------------------------------------|
E|77777-22222----------------------------------------------------------------|

e|---------------------------------------------------------------------------|
B|---------------------------------------------------------------------------|
G|---------------------------------------------------------------------------|
D|77-22-44-77-7--------------------------------------------------------------| x1
A|77-22-22-55-7--------------------------------------------------------------|
E|77-22-------7--------------------------------------------------------------|


That's pretty much it, fiddle around you'll get it =) 


===============================================================================
Tap to rate this tab
# A B C D E F G H I J K L M N O P Q R S T U V W X Y Z