Song name
# A B C D E F G H I J K L M N O P Q R S T U V W X Y Z

All Time Low - Sick Little Games tab

Hey! First tab by me (: I did this by ear so I'm not sure if this is 100% correct.

Standard Tuning, no capo.

|-2----5---0------0---2-----5---0-------0---2-----5---0-|
|----3---------3---------3-----------3---------3--------|
|-------------------------------------------------------|
|-------------------------------------------------------|
|-------------------------------------------------------|
|-------------------------------------------------------|

|-----0--3--2--------3--2-------0--------|
|--3-----------3-----------3-------3-----|
|----------------------------------------|      x2
|----------------------------------------|
|----------------------------------------|
|----------------------------------------|
Tap to rate this tab
 
# A B C D E F G H I J K L M N O P Q R S T U V W X Y Z