Song name
# A B C D E F G H I J K L M N O P Q R S T U V W X Y Z

All Time Low - Jasey Rae Live tab

|-------------------------------------------------------------|
|-------------------------------------------------------------|
|-------14--------14--------14-------14---------14--------14--|
|-11-12-----11-12-----11-12-----11-12-----11-12-----11-12-----|16x
|-------------------------------------------------------------|
|-------------------------------------------------------------|

|-------------------------------------------------------------|
|-------------------------------------------------------------|
|-14(tr)x4-14-12-11----14-12-14-16-14-16-18-16-18-------------|
|-------------------12----------------------------------------|
|-------------------------------------------------------------|
|-------------------------------------------------------------|

|-------------------------------------------------------------|
|-------------------------------------------------------------|
|-20-20-18-18-17-17-15-15-13-13-11-11-------------------------|
|------------------------------------15-15-15h16-13-----------|
|-------------------------------------------------------------|
|-------------------------------------------------------------|

tr= tremolo
h= hammer on

this is my first tab, and the only reason i did it is because no one else has and i 
it would be helpful. so if you have any corrections, please notify me at 
and please, no bashing.
Tap to rate this tab
# A B C D E F G H I J K L M N O P Q R S T U V W X Y Z